Oops, an error
Loading. Please wait.

Untitled 1 Tab

45 views 1 this week
no commentswrite comment
1 2 3 4 5
please rate
add to favorites
launch autoscroll
font size
0
reset
how to read this tab
guitar tuner
Autoscroll
slow
fast
+/-
esc
set tempo
stop
Help us to improve Ultimate-Guitar.com Take our survey!
×
Author
Difficulty
intermediate
SINKING STEPS RISING EYES - UNTITLED ONE

e|--------------------------------------------------------------|
B|--------------------------------------------------------------|
G|-20202020202020202020202020202020---------10--10------10--10--|
D|--------------------------------------------------------------| x4
A|-18181818181818181818181818181818-5p0-5p0-8---8---5p0-8---8---|
E|--------------------------------------------------------------|

e|----------------------------------|
B|----------------------------------|
G|-5---5-7/8\7-7-3----7-7-7-8-8-8-7-|
D|----------------------------------| x4
A|-3---3-5-----5-1----5-5-5-5-5-5-5-|
E|----------------------------------|

e|-------------------------------------------------|
B|-------------------------------------------------|
G|-7--7--7--7--7--7--7--7--7--7--7--7--7--7--7--7--|
D|-------------------------------------------------|
A|-5--5--5--5--5--5--5--5--5--5--5--5--5--5--5--5--|
E|-------------------------------------------------|

e|----------------------------------|
B|----------------------------------|
G|------12------12-8-7-8-8--8-7-8-8-|
D|----------------------------------| x3
A|-1010-10-1010-10-6-6-6-6--6-6-6-6-|
E|----------------------------------|
   PMPM    PMPM

e|------------------------------------------------------------|
B|------11------11------11------11----------------------------|
G|------12------12------12------12----8----8-7-7-7-7-10--7/10-|
D|------------------------------------5----5------------------| x2
A|-1010-10-1010-10-1010-10-1010-10-66-6-66-6------------------|
E|------------------------------------------------------------|
   PMPM    PMPM    PMPM    PMPM    PM   PM

e|-----------------------------------------------------------------------|
B|------------11--8h11------------11--8h11------------11--8h11-----------|
G|----12------------------12------------------12---------------8-7-8-7p5-|
D|-----------------------------------------------------------------------| x3
A|-10----1010----------10----1010----------10----1010----------6-6-6-----|
E|-----------------------------------------------------------------------|

e|-------------------------------------------------------|
B|-------------------------------------------------------|
G|-8--7-8-7p5-8--7--8--7-7-7-7-7-7-7-7-7-7-7-7-7-7-7-7-7-|
D|-----------------------8-8-8-8-8-8-8-8-8-8-8-8-8-8-8-8-|
A|-6--6-6-----6--6--6--6-6-6-6-6-6-6-6-6-6-6-6-6-6-6-6-6-|
E|-------------------------------------------------------|

e|----------------------------------------------|
B|----------------------------------------------|
G|-10-10-10-10-10-10-7-7-7-7-8-----8-8-8-7-h8-8-|
D|-8--8--8--8--8--8--8-8-8-8-8------------------| x3
A|-6--6--6--6--6--6--6-6-6-6-6------------------|
E|-6--6--6--6--6--6--6-6-6-6-6------------------|

e|-----------------------------------------------------------|
B|-----------------------------------------------------------|
G|-10-10-10-10-10-10-7-7-7-7-8-8-8-8-8-8-8-8-8-8-8-8-8-8-8-8-|
D|-8--8--8--8--8--8--8-8-8-8-8-8-8-8-8-8-8-8-8-8-8-8-8-8-8-8-| 
A|-6--6--6--6--6--6--6-6-6-6-6-6-6-6-6-6-6-6-6-6-6-6-6-6-6-6-|
E|-6--6--6--6--6--6--6-6-6-6-6-6-6-6-6-6-6-6-6-6-6-6-6-6-6-6-|

e|------------ x2 --------|----------------------------------------------|
B|------------------------|----------------------------------------------|
G|-12-12-12-12-8-10-8-7-7-|-12-12-12-12-1515-13-12-13-7-7-7-101010-8-7-7-|
D|-13-13-13-13-8-8--8-8-8-|-13-13-13-13-1313-13-13-13-8-8-8-8-8-8--8-8-8-| x3
A|-11-11-11-11-6-6--6-6-6-|-11-11-11-11-1111-11-11-11-6-6-6-6-6-6--6-6-6-|
E|-11-11-11-11-6-6--6-6-6-|-11-11-11-11-1111-11-11-11-6-6-6-6-6-6--6-6-6-|

e|----------- x2 --------|----------------------------------------------|
B|-----------------------|----------------------------------------------|
G|8-8-8-7h8---7h8--------|121212---15-13-12-12-7777---151515-13-12h13p12|
D|8-8-8-----8-----8-8-8-8|131313---13-13-13-13-8888---131313-13-13-13---| x2 
A|6-6-6-----6-----6-6-6-6|111111---11-11-11-11-6666---111111-11-11-11---|
E|6-6-6-----6-----6-6-6-6|111111---11-11-11-11-6666---111111-11-11-11---|

e|---------------------------------------------------------------|
B|---------------------------------------------------------------|
G|-8-8-8-8-8-8-8-8-8-8-8-8-8-8-8-8-8-8-8-8-8-8-8-8-8-8-8-8-8-8-8-|
D|-8-8-8-8-8-8-8-8-8-8-8-8-8-8-8-8-8-8-8-8-8-8-8-8-8-8-8-8-8-8-8-|
A|-6-6-6-6-6-6-6-6-6-6-6-6-6-6-6-6-6-6-6-6-6-6-6-6-6-6-6-6-6-6-6-|
E|-6-6-6-6-6-6-6-6-6-6-6-6-6-6-6-6-6-6-6-6-6-6-6-6-6-6-6-6-6-6-6-|

e|----------------------------------------|
B|----------------------------------------|
G|--12--12--121212-8-8-8-8-8-8-8-8-8-8----|
D|--13--13--131313-8-8-8-8-8-8-8-8-8-8----|
A|--11--11--111111-6-6-6-6-6-6-6-6-6-6--6-|
E|--11--11--111111-6-6-6-6-6-6-6-6-6-6--6-|
                                        PM

e|-------------------------------|
B|-------------------------------|
G|-121212-8-8-8-8-8-8-8-8-8-8----|
D|-131313-8-8-8-8-8-8-8-8-8-8----| x2
A|-111111-6-6-6-6-6-6-6-6-6-6--6-|
E|-111111-6-6-6-6-6-6-6-6-6-6--6-|
                               PM

e|---------|
B|---------|
G|-121212--|
D|-131313--|
A|-111111--|
E|-111111--|

e|------------------------------|
B|------------------------------|
G|-12121212-888--12121212-13-13-|
D|-13131313-888--13131313-13-13-| x4
A|-11111111-666--11111111-11-11-|
E|-11111111-666--11111111-11-11-|

e|----------------|
B|----------------|
G|-121212--121212-|
D|-131313--131313-|
A|-111111--111111-|
E|-111111--111111-|
Suggest correction
Give kudos to tab author, rate the tab!
1 2 3 4 5
comments
print report bad tab
guest
You may want to rate the tab now too:
select rating
Wanna post a correction for this tab? Suggest correction