Oops, an error
Loading. Please wait.

Untitled 2 Tab

30 views 1 this week
no commentswrite comment
1 2 3 4 5
please rate
add to favorites
launch autoscroll
font size
0
reset
how to read this tab
guitar tuner
Tab Pro tools
  • play this tab
  • loop segment
  • change instrument
  • show fretboard
  • metronome
Autoscroll
slow
fast
+/-
esc
set tempo
stop
Contributor
Difficulty
intermediate
SINKING STEPS RISING EYES - UNTITLED TWO

www.myspace.com/sinkingstepsrisingeyes

e|---------------------------------------------------------|
b|---------------------------------------------------------|
G|-9-99-9--------9-99-9--------9-99-9----------------------|
D|-7-77-7---10-9-7-77-7-10-9-7-7-77-7---10-9-7-9-10-9-7----|
A|-7-77-7-8------7-77-7--------7-77-7-8-----------------10-|
E|---------------------------------------------------------|

e|-------------------------------------------------------------|
b|-------------------------------------------------------------|
G|-9-99-9-17171717-9-99-9-14141414-9-99-9----------------------|
D|-7-77-7----------7-77-7----------7-77-7-10-9-9-7-9-10-9-7----|
A|-7-77-7-15151515-7-77-7-12121212-7-77-7-------------------10-|
E|-------------------------------------------------------------|

e|------------------------------------------------------------------|
b|------------------------------------------------------------------|
G|-9-99-9-17171717-9-9-14141414-12-10-9-99-9-17171717-121212-101010-|
D|-7-77-7----------7-7----------------7-77-7------------------------| x2
A|-7-77-7-15151515-7-7-12121212-10-8--7-77-7-15151515-101010-8-8-8--|
E|------------------------------------------------------------------|

e|------------------------------------------------------|
b|------------------------------------------------------|
G|-9999--9-10-10-7777--7-9-9-5555--5-7-7-444444-55-7777-|
D|-7777--7----------------------------------------------| x2
A|-7777--7-8--8--5555--5-7-7-3333--3-5-5-222222-33-5555-|
E|------------------------------------------------------|

e|-----------------------------------------------------------|
b|-----------------------------------------------------------|
G|-999999999999-7777777777-121212-555555555-777-444444444444-|
D|-777777777777----------------------------------------------| x2
A|-777777777777-5555555555-101010-333333333-555-222222222222-|
E|-----------------------------------------------------------|

bass (I don't think there is any guitar in this bit)

G|-----------------|
D|----9-10-12-10-9-| x4
A|-12--------------|
E|-----------------|

G|----9-10-12-10-9-|----9-10-9-------|
D|-12--------------|-12--------12-10-|
A|-----------------|-----------------|
E|----- x3 --------|-------- x1 -----|

G|-----------------|-----------------|
D|----9-10-12-10-9-|-12-10-9-12-10-9-|
A|-12--------------|-----------------|
E|----- x3 --------|-------- x1 -----|

G|----9-10-12-10-9-|----9-10-9-------|
D|-12--------------|-12--------12-10-|
A|-----------------|-----------------|
E|----- x3 --------|-------- x1 -----|

G|-----------------|
D|----9-10-12-10-9-| x4
A|-12--------------|
E|-----------------|

G|----9-10-12-10-9-|----9-10-9-------|
D|-12--------------|-12--------12-10-|
A|-----------------|-----------------|
E|----- x3 --------|-------- x1 -----|

G|-----------------|-----------------|
D|----9-10-12-10-9-|-12-10-9-12-10-9-|
A|-12--------------|-----------------|
E|----- x3 --------|-------- x1 -----|

G|----9-10-12-10-9-|-----------------|
D|-12--------------|-12-10-9-12-10-9-|
A|-----------------|-----------------|
E|----- x3 --------|-------- x1 -----|

e|--------------------------------------------------------------------------|
b|--------------------------------------------------------------------------|
G|-555555-444444-555555-555-777-101010101010-999999-101010101010-999-101010-|
D|--------------------------------------------------------------------------|
A|-333333-333333-333333-555-555-8-8-8-8-8-8--777777-8-8-8-8-8-8--777-8-8-8--|
E|--------------------------------------------------------------------------|

e|--------------------------------------------------|
b|--------------------------------------------------|
G|-121212121212121212121212-101010101010-99-1010-12-|
D|--------------------------------------------------|
A|-101010101010101010101010-8-8-8-8-8-8--77-8-8--10-|
E|--------------------------------------------------|

e|----------------------------------------------------|
b|----------------------------------------------------|
G|-121212121212121212121212-101010101010-121212121212-|
D|----------------------------------------------------|
A|-101010101010101010101010-8-8-8-8-8-8--101010101010-|
E|----------------------------------------------------|

e|------------------------|
b|------------------------|
G|-9999--9999--9999--9999-|
D|-7777--7777--7777--7777-|
A|-7777--7777--7777--7777-|
E|------------------------|

e|--------------------------------------------------|
b|--------------------------------------------------|
G|-999---------999--------999-----------------------|
D|-777-10-9-10-777-10-9-7-777-10-9-10-7-9-10-9-7----| x2
A|-777---------777--------777--------------------10-|
E|--------------------------------------------------|

e|------------------------------------------------------------|
b|------------------------------------------------------------|
G|-999-17171717-9-9-14141414-12-10-999-17171717-121212-101010-|
D|-777----------7-7----------------777------------------------| x2
A|-777-15151515-7-7-12121212-10-8--777-15151515-101010-8-8-8--|
E|------------------------------------------------------------|

e|------|
b|------|
G|-9999-|
D|-7777-|
A|-7777-|
E|------|
comments
We did not receive enough feedback on this tab! Please rate:
print report bad tab
1 2 3 4 5
I want to post or [tab]
guest
You may want to rate the tab now too:
select rating
Please do not post tabs as comments. Select "correction" instead!