Oops, an error
Loading. Please wait.

A Un Beso Mio Le Llaman Ruina Tab

version 1
version 1

Whole song

by Sinkope
112 views 3 this week
no commentswrite comment
1 2 3 4 5
3 more votes to show rating
add to favorites
launch autoscroll
font size
0
reset
how to read this tab
guitar tuner
×
Best way to learn
"A Un Beso Mio Le Llaman Ruina"
Autoscroll
slow
fast
+/-
esc
set tempo
stop
Weno pues esta transcripción es solo la del punteo del principio
la otra esta perfecta porlo q no hace falta cambiar nada, asi q
tocais este punteo y rapidamente cambiais a la otra tablatura

e|-----------------x-----------x--------------------------------
B|-----------------x-----------x--------------------------------
G|-----------------x--4-5-5s4--x--5-4-2-2s4--4-2-0-2------------
D|---2--2-0-2-3----x-----------x--------------------------------
A|---2----------3--x-----------x----------------------5s3s2-----
E|---0-------------x-----------x----------------------------0---


e|---8-7-5-5s7--8s7s8--7-8-8s7--8-7-5-5s7--7-5-3-3^---
B|----------------------------------------------------
G|----------------------------------------------------
D|----------------------------------------------------
A|----------------------------------------------------
E|----------------------------------------------------

solo decir q las xxxxxx es el ruidillo q ace mmmm...
¿frotando los dedos n las cuerdas? xD
no se ocmo deciroslo ni como se llama pero vamos
q sin tocar ninguna nota pasas la mano de punta a
punta de las cuerdas i sale eso, solo con la electrica
y muxo volumen xD

La he editado un trozo a petiión de UNAX. Va dedicada a él! XD

LUIS VA POR TI!!!!!!!!

SOC LUIS SOC EL MIYORRRRRRR FAIG LA MILLOR BROSA DE
CASTELLO I LA CONTORNA "PK 13-14"
Suggest correction
Give kudos to tab author, rate the tab!
1 2 3 4 5
comments
print report bad tab
guest
You may want to rate the tab now too:
select rating
Wanna post a correction for this tab? Suggest correction