Oops, an error
Loading. Please wait.

A Un Beso Mio Le Llaman Ruina Tab

version 2
version 2

Whole song

by Sinkope
65 views 3 this week
no commentswrite comment
1 2 3 4 5
3 more votes to show rating
add to favorites
launch autoscroll
font size
0
reset
how to read this tab
guitar tuner
×
Best way to learn
"A Un Beso Mio Le Llaman Ruina"
Autoscroll
slow
fast
+/-
esc
set tempo
stop
Este es mi primer aporte a la pagina, espero les guste.

es solo en inico o intro de la cancion, creo k mas facil k el otro.

e|---------------------------------------------------------
B|---------------------------------------------------------
G|---------------------------------------------------------
D|--------------9/10-10/9-9/10-9-7-7/9-9-9-7-5-5-7---------
A|--5/7-5-7-8--------------------------------------5-------
E|------------8--------------------------------------7-5-0-


e|---------------------------------------------------------
B|--12/13-12-13-12/13-12/13-12/13-13/12--------------------

e|---------------------------------------------------------
B|--12/13-12-10-10/12-12-12-10-8--8^-----------------------

A VER K LES PARECE ESTA TAB.
LA VERDAD ESUQE CUANDO SAQUE ESTE INTRO ME DIERON GANAS DE SUBIRLO
PERO AL LLEGAR A LA CUERDA ME DI CUENTA K YA ESTABA ¬¬
PERO EL MIO ES  MAS FACIL xD...

PD: LA PARTE ULTIMA ESTA DIVIDIDA PORK YA NO CABIA ¿OK?
Suggest correction
Give kudos to tab author, rate the tab!
1 2 3 4 5
comments
print report bad tab
guest
You may want to rate the tab now too:
select rating
Wanna post a correction for this tab? Suggest correction