Oops, an error
Loading. Please wait.

Le Voy A Cobrar A Tus Labios Tus Miradas Tab

331 views 3 this week
no commentswrite comment
1 2 3 4 5
3 more votes to show rating
add to favorites
launch autoscroll
font size
0
reset
how to read this tab
guitar tuner
Autoscroll
slow
fast
+/-
esc
set tempo
stop
Help us to improve Ultimate-Guitar.com Take our survey!
×
Ahí va este pedazo de tema, a disfrutar....
y perdon de antemano por los errores que pueda cometer :)

recomiendo usar estos acordes:

C:       G:     Em(una especie de Em 7):

-3-------3---------3-----
-3-------3---------3-----
-0-------0---------0-----
-2-------0---------2-----
-3-------2---------2-----
-x-------3---------0-----

A ver si me explico ;)

slide(en el sentido de la flecha): S>  o   S<
Hammer On(de la cuerda la aire al 2º traste por ejemplo):  0-H>2

Teneis ke darle las pausas correspondientes y el ritmo ke lleva la canción.

     C                      G
1|---3----------------------3----------------------------------------
2|---3----------------------3----------------------------------------
3|---0----------------------0----------------------------------------
4|---2-------------0--------0-----------0---------------0-H>2--------
5|---3-----0-H>2------------2---0-H>2-----------0-H>2----------------
6|---x----------------------3----------------------------------------

    C                                  G
1|--3-----S>5--S<3---------------------3-------------------
2|--3-----S>5--S<3---------------------3-------------------
3|--0----------------------------------0-------------------
4|--2------------------0-------0-------0-----------0-------
5|--3------------------0-H>2-----------2---0-H>2-----------
6|--x----------------------------------3-------------------


Esto se repite 2 veces:

                        Em        C        D
1|----------------------3---------3--------2---3---2--------
2|----------------------3---------3--------3---3---3--------
3|----------------------0---------0--------2---2---2--------
4|----------------------2---------2--------0---0---0--------
5|-0-H>2---0------------2---------3-------------------------
6|---------------3------0-----------------------------------


Esto es justo antes de empezar a cantar:

                        Em        C        D                      C
1|----------------------3---------3--------2----------------------3------
2|----------------------3---------3--------3----------------------3------
3|----------------------0---------0--------2----------------------0------
4|----------------------2---------2--------0----------------------2------
5|-0-H>2---0------------2---------3---------------3-S>5--3--2--0--3------
6|---------------3------0-----------------------------------------x------

En el resto de la canción mete algunos de estos arreglos
por si los kereis sacar
Espero ke disfruteis del tema.

Para los ke prefieran pasar de estos arreglos
pueden hacer la siguiente progresión al principio:
C/      G               X2
Em/     C/        D     X3

Y empieza aqui la letra:

C                           G
Le voy a cobrar a tus labios tus miradas
C                       G
por descarada y pa? sentir
          Em                C                   D
y poder vestir con tu sonreír mis raidos rincones
                        Em                 C                    D
donde duermen las flores que huyen del jardín de mi umbrío corazón
             Em                C             D
y entre tu sol y limpie mi cielo de nubarrones
C                 Am                 G                   D
que mi sangre entone alegres canciones pa? entrar en escena
C                      Am                G                D
y ser larguen mis penas por los callejones que dan al olvido
C               Am                  G             D
y acuda desnuda en mis noches oscuras tu luna llena
C               D                  Em                   G
y alumbre las aceras donde hago eras pa? trillar el ruido
C               D                     Em                G
que hacen las cadenas que arrastran la arena de mis bolsillos
D               Em                  G
y pa? mi triste playa quiero tus olas,
D              Em               G
pa? mi fuente seca, tu manantial
D               Em              G
me noto sediento y va siendo hora
Em               D               C
de ponerse al lio y beber del rio que hay en tu mirar
Em               D               C
y espantar al frio que venía conmigo, lo voy a quemar
Em               D                     C
y brindar por tus ojos los cuales me arrojo ya puedes mirar
Em              D               C
que vengo vestido para que me empiecen a desnudar
D      Em         G
uuuuu uuuuu tus manos, tus manos?  X3

Em/     C/     D   X3

C                            G
Le voy a cobrar a tus labios tus miradas
C                    G
por descarada y por placer
                Em          C              D
Pues quiero tejer mi amanecer con tu mañana
                  Em                    C               D
y me invadan las ganas de arder en tu piel y probar tu calor
            Em          C              D
Y con tu olor bordar el aura que nos acompaña
             Em                    C              D
Y notar que sanan las grietas que abre el puto dolor
                   Em             D
cuando rompen las ramas de mi árbol X2

   ***Se acabó la parte acústica...
       ahora darle ganancia y disfrutar aún más si cabe***

                 Em   C                     D
se resfría en invierno y no da sombra en verano  X2
              Em/    C/      D
y no da sombra...
Em/     C/     D         X 4
C/      Am/    G/    D   X 3
  ***final:***
C/     Am/    G/    D/ C/ Bm/ Am.....G


Akí teneis, para todos los amantes del Rock en español
Suggest correction
Give kudos to tab author, rate the tab!
1 2 3 4 5
comments
print report bad tab
guest
You may want to rate the tab now too:
select rating
Wanna post a correction for this tab? Suggest correction