Oops, an error
Loading. Please wait.

No Quiero Que El Sol Me Muerda Otra Vez Tab

by Sinkope
38 views 1 this week
no commentswrite comment
1 2 3 4 5
3 more votes to show rating
add to favorites
×
Save as Personal and add changes to this tab that will be seen only by you. Learn more ›
×
You can save this tab as Personal to edit and correct it or add notes. All changes will be seen only by you. Learn more »
save as personal
new!
launch autoscroll
font size
0
reset
how to read this tab
guitar tuner
Autoscroll
slow
fast
+/-
esc
set tempo
stop
(punteo del principio)

   REm            FA7           LA#            SOLm
|-------------------------------------------------------|
|------6------------------------------------------------|
|--------7----------5------------7-------------4--------|
|----7-----7------7---7------------8-------------5------|
|--5------------8-------8------8-----8-------5-----5----|
|----------------------------6-------------3------------|

|-------------------------------------------------------|
|------8-6----------------------------------------------|
|----------7--------4~5------------7--------------------|
|----7------------7-----7------------8-----------5------|
|--5------------8----------------8-----8-------5---(5)--|
|----------------------------5~6-------------3----------|


Nadé toda la noche en los mares de los bares dejándome
arrastrar por sus corrientes.
Aliñando mi mente y frenando el desparrame a
base de ilegales ingredientes.
Mostrando mis diablos, ahuyenté el mal fario y
me dije que no quería oleaje,
ni tampoco tormentas expertas en naufragios
que joden la alegría de estos viajes.

------------------------------------------------------------:

(segundo punteo)

      LA#          DO5        RE5    SOL LA
|---------------------------------------------|
|---------------------------------------------|
|------7------------5----------7--------------|
|--------8--------5---5------7---7------------|
|----8-----8----3----------5----------5---7---|
|--6----------------------------------3---5---|
        LA#          DO5        RE5
|-----------------------------------------------|
|----------------------------------------6------|
|--------7------------5----------7---------7----|
|----------8--------5---5------7---7---7-----7--|
|------8-----8----3----------5-------5----------|
|----6------------------------------------------|

      LA#          DO5        RE5    SOL LA
|---------------------------------------------|
|---------------------------------------------|
|------7------------5----------7--------------|
|--------8--------5---5------7---7------------|
|----8-----8----3----------5----------5---7---|
|--6----------------------------------3---5---|
        LA#          DO5        RE5
|----------------------------------------------|
|----------------------------------------------|
|--------7------------5------7-7-7-7-7-7-7...--|
|----------8--------5---5----7-7-7-7-7-7-7...--|
|------8-----8----3----------5-5-5-5-5-5-5...--|
|----6-----------------------------------------|


Y, cerrado el trato, proseguí nadando a mi puta bola
y, si vienen olas, me sumergiré,
pues no quiero acabar varado en la arena a estas horas,
que aún tengo faena por hacer.

-------------------------------------------------------------:

SOL5               LA#5
Y a medida que la noche va caminando,
FA5                         DO5       DO5-LA#
se van formando piezas pal carrusel
SOL5                 LA#
y, tirando de parné, cada cual pinta su cuadro y
     FA5                   DO5
a la oreja se corteja el placer..

-------------------------------------------------------------:

      LA#          DO5        RE5    FA  SOL
|---------------------------------------------|
|---------------------------------------------|
|------7------------5----------7--------------|
|--------8--------5---5------7---7------------|
|----8----------3----------5----------3---5---|
|--6----------------------------------1---3---|
       LA#          DO5        RE5
|---------------------------------------------|
|--------------------------------------6------|
|--------7----------5----------7---------7----|
|-----------------5---5------7---7---7-----7--|
|------8---8----3----------5-------5----------|
|----6----------------------------------------|

      LA#          DO5        RE5    FA  SOL
|---------------------------------------------|
|---------------------------------------------|
|------7------------5----------7--------------|
|--------8--------5---5------7---7------------|
|----8----------3----------5----------3---5---|
|--6----------------------------------1---3---|
       LA#          DO5        RE5
|--------------------------------------------|
|--------------------------------------------|
|--------7----------5------7-7-7-7-7-7-7...--|
|-----------------5---5----7-7-7-7-7-7-7...--|
|------8---8----3----------5-5-5-5-5-5-5...--|
|----6---------------------------------------|


Yo sigo nadando y a veces, buceo a mi puta bola
y si te veo sola, aullaré.
Y aunque deseo acabar varado en aguas de tu boca,
aun me quedan rocas que romper.

-------------------------------------------------------------:

RE-FA-LA#-SOL (solo de guitarra) X4

-------------------------------------------------------------:

DO5         RE5      LA#5         FA5
Y vuelvo emerger mojado pero encendido.
DO5           RE5               LA#5          FA5
Dispuesto de nuevo a poner en su sitio mis sentidos.
DO5          RE5                 LA#5       FA5
Sonrío y comienzo a leer en los ojos de la gente,
DO5          RE5               LA#5         FA5
forma que empieza a coger el careto del ambiente.

-------------------------------------------------------------:

SOL5                LA#5
Y, a medida que la noche se va gastando,
 FA5                        DO5      DO5-LA#5
se van cayendo piezas del carrusel
SOL5                       LA#5
y, me apetece comer de tu cuerpo que me asalta,
 FA5                              DO5
pero el sol ya se levanta y no quiero que me dé.

-------------------------------------------------------------:

RE5              FA5 LA#5         SOL5
No quiero que el sol me ladre otra vez
RE5              FA5 LA#5         SOL5
No quiero que el sol me vuelva a morder.
RE5              FA5 LA#5         SOL5
No quiero que el sol me ladre otra vez
RE5              FA5 LA#5         SOL5
No quiero que el sol me vuelva a morder.

-------------------------------------------------------------:

p.m.p.m.p.m.p.m.     p.m.p.m.p.m.p.m.
RE5-RE5-RE5-RE5-RE5  FA5-FA5-FA5-FA5-FA5
¡¡No quiero!!

p.m. p.m. p.m. p.m.       p.m. p.m. p.m. p.m.
LA#5-LA#5-LA#5-LA#5-LA#5  SOL5-SOL5-SOL5-SOL5-SOL5   x4


(En la ultima repeticion hace asi)

p.m.p.m.p.m.p.m.     p.m.p.m.p.m.p.m.
RE5-RE5-RE5-RE5-RE5  FA5-FA5-FA5-FA5-FA5  LA#5 - FA5 - SOL5

-------------------------------------------------------------:

Weno hasta aqui la tab, nose si os sonara bien del todo,
a mi me suena bastante bien.
Lo siento si lo veis muy vertical y no tan ancho
pero es que no me ha dejado enviarlo como yo queria.
Si teneis alguna duda---->jorgeatbudokan@
Un saludo y a rockanrolear!! AUPA SINKOPE!! agur.
Suggest correction
Give kudos to tab author, rate the tab!
1 2 3 4 5
comments
print report bad tab
guest
Wanna post a correction for this tab? Suggest correction