Oops, an error
Loading. Please wait.

Pare Madrid Tab

version 1
version 1

Whole song

by Sinkope
34 views 1 this week
no commentswrite comment
1 2 3 4 5
3 more votes to show rating
add to favorites
launch autoscroll
font size
0
reset
how to read this tab
guitar tuner
×
Best way to learn
"Pare Madrid"
Autoscroll
slow
fast
+/-
esc
set tempo
stop
ACORDES:> DO#m MI FA#m SOL#m LA SI

Arpegio intro

  DO#m                 SI                  LA                   MI
]------------------------------------------------------------------------|
]---------5-----5--------------4----4--------------2-----2---------------|
]-----6-------6---6--------4------4---4--------2-------2---2------1h2p1-1|
]---6---6---6-------6----4---4---4------4----2---2---2-------2--2-------2|
]-4--------------------2-------------------0--------------------2-------2|
]-----------------------------------------------------------------------0|

  DO#m               SI                LA
]------------------------------------------------0-|
]---------7-5-4h5p4----------5-4-2-4-------------2-|
]-----6------------------4-------------------2---2-|Mi
]---6---6--------------4---4---------------2---2---|
]-4------------------2-------------------0---------|
]--------------------------------------------------|

(En los cuatro primeros versos se repite dos veces el primer arpegio)

Corre la fría noche buscando el calor del día

y el silencio se desmonta en un momento.

Advierten negras nubes que el sol hoy no madrugue

y puede que la lluvia esté presente.

DO#m                   SI
Se despierta la gente, su ajetreo y su rutina

LA                           MI
y a la vuelta de la esquina, amanece.

DO#m               SI
Saluda la mañana y las calles se acicalan

LA                           MI
y el trasiego de la vida nos ofrecen.

SI5      FA#5
Avenidas invadidas por motores

LA5                          MI5
con sus ruidos, sus olores y adelantos.

SI5          FA#5
Otro atasco, otro percance, otro borde,

LA5                          MI5
otra obra y otro ¿dónde coño aparco?

]------------------------------------|
]-----9---------------9--------------|
]-6-------9--8----6-------9--8-9-8---|
]----------------------------------9-|
]------------------------------------|
]------------------------------------|

DO#m                  SI
Abandonan sus barrios los hijos del salario

LA                         MI
a montar el escenario de a diario.

DO#m                  SI
Se cuajan las aceras, se desgastan y se operan

LA                           MI
y abren mil trincheras entre andamios.

SI5              FA#5
Y crece el reino del acero y el cemento

LA5                             MI5
y el asfalto brota rápido en el campo.

SI5        FA#5
Otro árbol derribado por el progreso

LA5                               MI5
junto a un nido de chabolas de extrarradio.

FA#5                    DO#5
Y vallas de publicidad que siempre nos venden algo

SI5                             LA5
Y otro centro comercial  pa dar abasto

FA#5                 DO#5
Basura para aburrir, producto del gasterío

SI5                                LA5
y en el río, tos los  peces llevan casco.

DO#5   LA5   MI5           SI5
Y pare Madrid un montón de sueños para no dormir,

DO#5        LA5  MI5 SI5
y empieza a rugir el movimiento.

DO#5     LA5   MI5                     SI5
Que ir y venir hay en su piel y en sus adentros,

DO#5    LA5  MI5       SI5
vivir y morir al mismo tiempo..

SOL#5                       LA5
Y comercio y oficinas y mil putas sin esquinas
DO#5                       SI5
y la ronda habitual de los maderos.

SOL#5                         LA5
Turistas, pa los artistas del timo y el trapicheo

DO#5                                    SI5
y, en el barrio de Lavapies caben las culturas del mundo entero.

DO#5   LA5    MI5          SI5
Y pare Madrid un montón de sueños para no dormir,

DO#5           LA5 MI5         SI5
Sueños p´al de aquí y p´al extranjero.

DO#5   LA5      MI5         SI5
Y pare Madrid, riqueza, pobreza

             DO#5       LA5  MI5   SI5
y todo un sinfín de aventuras y aventureros.


SOLAKO XD


DO#5   LA5     MI5         SI5               DO#5
Y pare Madrid un montón de sueños para no dormir

         LA5    MI5         SI5
y, sin descanso, corre el dinero.

DO#5   LA5   MI5          SI5
Y pare Madrid historias y retos que digerir.

DO#5     LA5  MI5      SI5
Vivir y morir al mismo tiempo.

DO#5   LA5    MI5              SI5
Y pare Madrid mientras tose el cielo.

DO#5   LA5    MI5               SI5
Y pare Madrid  y ahora silba el viento.

DO#5   LA5      MI5    SI5
Y pare Madrid.

DO#5  LA5


El solo... pos aun me supera xD kien lo tenga ke lo rule pero ya!!:P
ale a tokar y disfrutar
Suggest correction
Give kudos to tab author, rate the tab!
1 2 3 4 5
comments
print report bad tab
guest
You may want to rate the tab now too:
select rating
Wanna post a correction for this tab? Suggest correction