Oops, an error
Loading. Please wait.

Pare Madrid Tab

version 2
version 2

Whole song

25 views 3 this week
no commentswrite comment
1 2 3 4 5
3 more votes to show rating
add to favorites
launch autoscroll
font size
0
reset
how to read this tab
guitar tuner
×
Best way to learn
"Pare Madrid"
Autoscroll
slow
fast
+/-
esc
set tempo
stop
Aquí va esta de canción de los extremeños Sínkope,
se la dedico a todos mis amigos y a mi novia.

       DO#           SI          LA         MI    SI
e|-----------------------------------------------------
b|-----5--5---------4--4--------2--2-------------------
g|---6--6--6------4--4--4-----2--2--2-----1h2p1---4----
d|--6-6--6--6----4-4--4--4---2-2--2--2------------4----
a|-4------------2-----------0---------------------2----
E|--------------------------------------0--------------

     DO#               SI               LA      MI  SI
e|-----------------------------------------------------
b|------7-5-4h5p4---------5-4-2------------2x---0x-----
g|---6------------4----4--------2-----2----2x---1x--4--
d|--6-6---------------4-4------------2-2---2x---2x--4--
a|-4-----------------2--------------0------0x---2x--2--
E|----------------------------------------------0x-----

X = repetir varias veces y rapido


DO#                           SI
Corre la fría noche secando el calor del día
    LA#                                     MI
el silencio se desmonta en un momento.
DO#                            SI
Advierte negras nubes, que El Sol hoy no madrugue
LA                               MI
puede que la lluvia esté presente.


DO#                           SI
Se despierta la gente, su agetreo y su rutina
LA#                               MI
y a la vuelta de las esquina amenece.
 DO#                           SI
Se adentra la mañana y las calles se acicalan
    LA#                          MI
y el trasiego de la vida nos ofrece...

SI               FA#
Avenidas invadidas por motores
       LA                        MI
con sus ruidos sus olores y adelantos.
SI               FA#
Otro atasco otro percance otro borde
 LA                           MI
otra obra y otro donde coño aparco.

e|-----------------------------------------------------------------
b|-------/9--------------------/9----------------------------------
g|--/6-------9--8v---------/6------9-8h9p8-8-----------------------
d|--------------------------------------------9v-------------------
a|-----------------------------------------------------------------
E|-----------------------------------------------------------------

v = vibración

DO#                           SI

Abandonan sus barrios los hijos del salario
LA#                            MI
pa montar el escenario de a diario.
 DO#                                    SI
Se cuajan las aceras, se desgastan y se operan
LA#                               MI
y abren mil trincheras entre andamios.

SI                FA#
Y crece el reino del acero y el cemento
 LA                            MI
y el asfalto brota rapido en el campo.
SI                   FA#
Otro árbol derriabao por el progreso
   LA                          MI
junto a nidos de chabolas de extraradio
FA#                                  DO#
y vallas de publicidad que siempre nos venden algo
         SI                             LA
y otro centro comercial pa dar abasto.
FA#                                  DO#
Basura para aburrir producto del gasterío
       SI                              LA
y en el río to los peces llevan casco

DO#(se para)la / MI                      SI
Y pare madrid y montón de sueños para no dormir
DO#         LA / MI        SI
empieza a rugir el movimiento
DO#(se para)la / MI                      SI
que ir y venir hay en su piel y sus adentros
DO#     A / MI            SI
vivir y morir al mismo tiempo

SOL#                               LA
y comercios y oficinas y mil putas sin esquina
DO#                           SI
y la ronda habitual de los maderos
SOL#                                 LA
turistas pa los artistas del timo y el trapicheo
            REm                                       DO 
y en el barrio de lavapies caben las culturas del mundo entero

DO#(se para)la / MI                      SI
Y pare madrid y montón de sueños para no dormir
DO#     A / MI            SI
sueños pal de aquí y pal extrangero
DO#(se para)la / MI             SI
Y pare madrid riqueza pobreza y todo
DO#     A / MI            SI
un sinfín de aventuras y aventureros


solo de guitarra

DO#(se para)la / MI                      SI
Y pare madrid y montón de sueños para no dormir
DO#     A / MI            SI
y sin descanso corre el dinero
DO#(se para)la / MI                    SI
y pare madrid historias y retos que digerir
DO#     A / MI            SI
vivir y morir al mismo tiempo
DO#   LA / MI                      SI
y pare Madrid mientras tose el cielo
DO#    LA / MI                  SI
y pare Madrid yo le silvo al viento
DO#     A / MI            SI
y pare Madrid
Suggest correction
Give kudos to tab author, rate the tab!
1 2 3 4 5
comments
print report bad tab
guest
You may want to rate the tab now too:
select rating
Wanna post a correction for this tab? Suggest correction