Oops, an error
Loading. Please wait.

Nothing At All Tab

382 views 1 this week
no commentswrite comment
1 2 3 4 5
please rate
add to favorites
launch autoscroll
font size
0
reset
how to read this tab
guitar tuner
Tab Pro tools
  • play this tab
  • loop segment
  • change instrument
  • show fretboard
  • metronome
×
Best way to learn
"Nothing At All"
Autoscroll
slow
fast
+/-
esc
set tempo
stop
Contributor
Sinners & Saints - Nothing At All
Album : The Sky Is Falling ('2002)

Tabbed by: Shaun(enamoredbyyou@cs.com) 

Intro: (2x) 
e-----------| 
B-----------| 
G----6-4----| 
D--4-6-4-4--| 
A--4-4-2-4--| 
E--2-----2--| 

Intro 2: (4x) 
e----------------------| 
B----------------------| 
G-------6666-444-6666--|(listen to cd to get the exact amount of times) 
D--4444-6666-444-6666--| 
A--4444-4444-222-4444--| 
E--2222----------------| 

Intro 3(listen to cd to get amount of times to play notes): 
e----9-12-9-7-9-9-7-5-7-------------| 
B--/7-----------x-x-x-x-------------| 
G---------------6-4-2-4-11-10-8-10--| 
D------------------------x--x-x--x--| 
A------------------------9--8-6--8--| 
E-----------------------------------| 

Verse(8x)(clean): 
e-----------------| 
B-----------------| 
G--------6--4--6--| 
D----4--6--4--6---| 
A---4--4--2--4----| 
E--2--------------| 
Lyrics to verse 1: 
I ran into an old school punk today 
and i remember when i just wished he'd go away 
i always new that our paths would cross again 
with me on my new way and him with no friends 
maybe he didn't see me, maybe he did 
but he didn't look or maybe i hid 
i shed a tear as i think of our rise and fall.. 

Chorus(4x) 
e-------------------------| 
B-------------------------| 
G----------6666-444-6666--| 
D-///-4444-6666-444-6666--| 
A-///-4444-4444-222-4444--| 
E-///-2222----------------| 
Chorus lyrics: 
I guess we got nothing at all 


Verse(8x)(clean): 
e-----------------| 
B-----------------| 
G--------6--4--6--| 
D----4--6--4--6---| 
A---4--4--2--4----| 
E--2--------------| 
Verse 2 lyrics: 
I walk the city streets soaking the nightlife 
isolated but it makes me feel alright 
a serious look and my music close by 
i look at the pretty girls and think about mine 
i hear the sounds, the sounds are what hurts me 
i ain't got much but it gives me a purpose 
and what is time but to pass time away? 
how much more lonely can i feel today? 

Chorus(4x) 
e-------------------------| 
B-------------------------| 
G----------6666-444-6666--| 
D-///-4444-6666-444-6666--| 
A-///-4444-4444-222-4444--| 
E-///-2222----------------| 
Chorus 2 lyrics: 
Nothing at all, i got nothing at all 

Bridge(2x)(listen to cd for amount of times to play chords): 
e-------------| 
B-------------| 
G--4---6-4-6--| 
D--4-4-6-4-6--| 
A--2-4-4-2-4--| 
E----2--------| 
Bridge lyrics: 
Da da, na na na na, yeah 

Verse(8x)(clean): 
e-----------------| 
B-----------------| 
G--------6--4--6--| 
D----4--6--4--6---| 
A---4--4--2--4----| 
E--2--------------| 
Verse 3 lyrics: 
Call me crazy cuz i wanted to settle down 
lifes a lie, she's gone and she let me down 
that old faces and the other ones too 
are looking for answers but i swear they're confused 
maybe you're down here too 
i can relate but what else could i do? 

Chorus(until the end) 
e-------------------------| 
B-------------------------| 
G----------6666-444-6666--| 
D-///-4444-6666-444-6666--| 
A-///-4444-4444-222-4444--| 
E-///-2222----------------|

Chorus 3 lyrics: 
Nothing at all, I got nothing at all 


that song is stupid easy.
comments
We did not receive enough feedback on this tab! Please rate:
print report bad tab
1 2 3 4 5
I want to post or [tab]
guest
You may want to rate the tab now too:
select rating
Please do not post tabs as comments. Select "correction" instead!