Oops, an error
Loading. Please wait.

Rey De Mi Mundo Tab

by Sinraza
9 views 1 this week
no commentswrite comment
1 2 3 4 5
3 more votes to show rating
add to favorites
×
Save as Personal and add changes to this tab that will be seen only by you. Learn more ›
×
You can save this tab as Personal to edit and correct it or add notes. All changes will be seen only by you. Learn more »
save as personal
new!
launch autoscroll
font size
0
reset
how to read this tab
guitar tuner
Autoscroll
slow
fast
+/-
esc
set tempo
stop
   /F#m/
Yo soy
/E/   /D/           /F#m/     /E/    /D/
el rey, el rey de mi mundo
   /F#m/             /E/          /D/
Yo soy el rey de  mi mundo, lo soy,
                /F#m/       /E/       /D/
el rey del mundo......


Instrumental /F#m/  /E/   /D/   /C#m/

Tab del punteo:


e---------------------------------------------------------------------
b------9-10-9-----9--10w------/14---14-14---12--12----10--12w---------
g--/11---------11-----------------------------------------------------
d---------------------------------------------------------------------
a---------------------------------------------------------------------
E---------------------------------------------------------------------

e---------------------------------------------------------------------
b--12--14---15-14--12--15-14--12--15-14--12--14--12----10-----9^10^9--
g---------------------------------------------------------------------
d---------------------------------------------------------------------
a---------------------------------------------------------------------
E---------------------------------------------------------------------

e---------------------------------------------------------------------
b------9-10-9-----9--10w------/14---14-14---12--12----10--12w---------
g--/11---------11-----------------------------------------------------
d---------------------------------------------------------------------
a---------------------------------------------------------------------
E---------------------------------------------------------------------

e----------------------------------------------------------12---10--9-
b--12--14---15-14--12--15-14--12--15-14--12--15-14--12----------------
g---------------------------------------------------------------------
d---------------------------------------------------------------------
a---------------------------------------------------------------------
E---------------------------------------------------------------------


e---9^10^9------------------------
b-----------12--10--9^10^9--------
g-----------------------------11w-
d---------------------------------
a---------------------------------
E---------------------------------
/F#m/  /E/         /D/  (x2)

      /F#m/         /E/                          /D/
Me desboco cuando pienso que soy mas raro que un loco
      /F#m/         /E/                          /D/
Me lastimo cuando sufro en el silencio, es mi destino

      /F#m/         /E/                          /D/
Y ahora pienso en todos los años que he pasado con mi presencia en
esta vida que de mi canea
      /F#m/         /E/                          /D/
Se entristece eso seguro por las penas que rondan por mi cabeza de
dolor de temor
      /F#m/         /E/                          /D/
Y ahora que desprecio el sentimiento  del amor la rutina ya me
traiciono
      /F#m/         /E/                          /D/
Los engaños que me disteis me matasteis la bondad que poseía en
MI interior

      /F#m/         /E/                          /D/
Y ahora odiar que viva en una pompa de algodón donde no tengo
frío ni calor
      /F#m/         /E/                          /D/
Y ahora odiar que pase de matarme a cabezazos contra las paredes
 del dolor
      /F#m/         /E/                          /D/
Y ahora si me voy a comer el mundo para que luego digan que no
soy el rey del mundo
      /F#m/         /E/                          /D/
Y ahora si cambio mis noches frías por las tardes locas que siempre
me merecía
   /F#m/         /E/          /D/
Yo soy el rey, el rey, el rey, el rey,
   /F#m/         /E/          /D/
el rey de mi mundo
   /F#m/         /E/          /D/
Yo soy el rey, el rey, el rey, el rey,
   /F#m/         /E/          /D/
el rey del mundo

Me desboco cuando me susurra al oído la angustia terrible
De la hambruna empachada de la nada que recibo

Y ahora que me salto los renglones de las penas de las canciones
que escribo
Y ahora que se acaban mis perdones porque creo que yo de nadie
he recibido
Y ya ves me tumbo en los balcones de mi orgullo que hace años
había perdido
Mírame no tienes mas remedio que salir de mi camino

Y ahora odiar que viva en una pompa de algodón donde no tengo
frío ni calor
Y ahora odiar que pase de matarme a cabezazos contra las paredes
del dolor
Y ahora si me voy a comer el mundo para que luego digan que no
soy el rey del mundo
Y ahora si cambio las noches frías por las tardes locas que
siempre me merecía

Y ahora odiar que viva en una pompa de algodón donde no tengo
frío ni calor
Y ahora odiar que pase de matarme a cabezazos contra las paredes
 del dolor
Y ahora si me voy a comer el mundo para que luego digan que no
soy el rey del mundo
Y ahora si cambio mis noches frías por las tardes locas que siempre
 me merecía.

Yo soy el rey, el rey, el rey, el rey, el rey de mi mundo
Yo soy el rey, el rey, el rey, el rey, el rey del mundo

Yo soy el rey de mi mundo, yo soy el rey de mi mundo, el rey de mi mundo
Yo soy el rey de mi mundo, yo soy el rey de mi mundo, el rey del mundo...


ByEN3MIGO.
Suggest correction
Give kudos to tab author, rate the tab!
1 2 3 4 5
comments
print report bad tab
guest
Wanna post a correction for this tab? Suggest correction