Oops, an error
Loading. Please wait.

Happy House bass

version 1
version 1

Whole song

7,472 views 21 this week
1 commentread comment
1 2 3 4 5
x 9
add to favorites
×
Save as Personal and add changes to this tab that will be seen only by you. Learn more ›
×
You can save this tab as Personal to edit and correct it or add notes. All changes will be seen only by you. Learn more »
launch autoscroll
font size
0
reset
guitar tuner
edit
Autoscroll
slow
fast
+/-
esc
set tempo
stop
Author
artist: sioxsie and the banshees
song: happy house

bass tab              10/06/07

for contact: Luk07@hotmail.it

intro

G----9-------12-------17----19----16--|
D--9------12-------17-----------------|
A-------------------------------------|
M-------------------------------------|


G--------|
D--------|
A--17/7--|
M--------|

Part 1

G---------------------------------------------------------------------------|
D------9-9-----9-9-------12-12-------12-12-----5-5-----5-5-----4-4-----4-4--|
A--7-7-----7-7-----10-10-------10-10-------3-3-----3-3-----2-2-----2-2------|
M---------------------------------------------------------------------------|

Part 2

G-----------------------------------------------------------------------|
D-----------------------------------------------------------------------|
A--77-7-7-7-7-7-7-1010-10-10-10-10-10-10-33-3-3-3-3-3-3-22-2-2-2-2-2-2--|
M-----------------------------------------------------------------------|

            
            
Suggest correction
Creating personal tab
Creating personal tab
You can edit any tab online and save it as your Personal.

You can edit, replace or remove any tab part or add personal notes – all changes will be seen only by you.

Personal tabs can be accessed anytime from any device, even offline.
Learn more »
comments
print report bad tab
1 comment total.
0 reply
sidwasinnocent1979 10 Dec 20, 2015 10:26 AM

Great tab, 5/5

guest
You may want to rate the tab now too:
select rating
Wanna post a correction for this tab? Suggest correction