Oops, an error
Loading. Please wait.

Israel bass

version 1
version 1

Whole song

Interactive

6,066 views 24 this week
5 commentsread comments
1 2 3 4 5
x 6
add to favorites
×
Save as Personal and add changes to this tab that will be seen only by you. Learn more ›
×
You can save this tab as Personal to edit and correct it or add notes. All changes will be seen only by you. Learn more »
launch autoscroll
font size
0
reset
guitar tuner
backing track
0:00
0:00
edit
Autoscroll
slow
fast
+/-
esc
set tempo
stop
Author
Difficulty
Artist: Siouxsie And The Banshees
  song: Israel

(pattern 1)

G|---------------------------------|
D|---------------------------------|
A|-2---2---2---2---2---2---0---0---|
E|---------------------------------|  x 10

(pattern 2)

G|---------------------------------|---------------------------------|
D|---------------------------------|---------------------------------|
A|-7-7---7-7---7-7---7-7---7---7---|-4-4---4-4---4-4---4-4---4---4---|
E|---------------------------------|---------------------------------|

G|---------------------------------|---------------------------------|
D|-5-5---5-5---5-5---5-5---5---5---|-1212--1212--1212--1212--12--12--|
A|---------------------------------|---------------------------------|
E|---------------------------------|---------------------------------| x 5

Little orphans in the snow
With nowhere to call a home
Start their singing
Singing

Waiting through the summertime
To thaw your hearts in wintertime
That's why they're singing
Singing.

Waiting for a sign
to turn blood
into wine.

The sweet taste in your mouth
turned bitter
in its glass.

(pattern 3)

G|---------------------------------|---------------------------------|
D|---------------------------------|---------------------------------|
A|---------------------------------|-3---3---3---3---3---3---3---3---|
E|-0---0---0---0---0---0---0---0---|---------------------------------| x3

G|---------------------------------|---------------------------------|
D|---------------------------------|---------------------------------|
A|-10--10--10--10--10--10--10--10--|-5---5---5---5---5---5---5---5---|
E|---------------------------------|---------------------------------|


Israel
In Israel
Israel
In Israel

(pattern 2) x4

Shattered fragments of the past
Meet in veins on the stained glass
Like the lifeline
In your palm

Red and green reflects the scene
Of a long forgotten dream
There were princes 
And there were kings

Now hidden in 
disguise
cheap wrappings 
of lies

Keep your heart
alive 
with a song from 
inside

(pattern 2b)

G|---------------------------------|---------------------------------|
D|---------------------------------|---------------------------------|
A|-7---7---7---7---7---7---7---7---|-4---4---4---4---4---4---4---4---|
E|---------------------------------|---------------------------------|

G|---------------------------------|---------------------------------|
D|-5---5---5---5---5---5---5---5---|---------------------------------|
A|---------------------------------|-5---5---5---5---5---5---5---5---|
E|---------------------------------|---------------------------------| x 2

(guitar solo)

Even though we're all alone
We are never on our own
when we're singing
singing

(pattern 2c)

G|---------------------------------|---------------------------------|
D|---------------------------------|---------------------------------|
A|-7-------------------------------|-4-------------------------------|
E|---------------------------------|---------------------------------|

G|---------------------------------|---------------------------------|
D|-5-------------------------------|---------------------------------|
A|---------------------------------|-5-------------------------------|
E|---------------------------------|---------------------------------| x 2

Oh...
Oh
Oh...
Oh

(pattern 1) x 12
(pattern 2) x 2

There's a man who's looking in
And he smiles a toothless grin
Because he's singing
Singing

See some people shine with glee
But their song is jealousy
Their hate is clanging
maddening

(pattern 3)

In Israel
will they sing Happy Noel
Israel
in Israel

(pattern 3b)
G|---------------------------------|---------------------------------|
D|---------------------------------|---------------------------------|
A|---------------------------------|-3---3---3---3---3---3---3---3---|
E|-0---0---0---0---0---0---0---0---|---------------------------------| 

G|---------------------------------|---------------------------------|
D|---------------------------------|---------------------------------|
A|-10--10--10--10--10--10--10--10--|-5---5---5---5---5---5---5---5---|
E|---------------------------------|---------------------------------| x2


Israel
in Israel
In Israel
will they sing Happy Noel

(pattern 1) x 12
Suggest correction
Creating personal tab
Creating personal tab
You can edit any tab online and save it as your Personal.

You can edit, replace or remove any tab part or add personal notes – all changes will be seen only by you.

Personal tabs can be accessed anytime from any device, even offline.
Learn more »
comments
print report bad tab
5 comments total. Showing first comments.
0 reply
Lazlok 10 Mar 07, 2010 08:46 AM

Great tab, I also was taking this matter to hearing.

A query in the choir think might be:

G|--------------------------------------|---------------------------------------|
D|--------------------------------------|---------------------------------------|
A|-7---7---7---7---7---7---7---7--|---------------------------------------|
E|--------------------------------------|--8---8---8---8---8---8---8---8--| x3

G|--------------------------------------|----------------------------------------|
D|-5---5---5---5---5---5---5---5--|----------------------------------------|
A|--------------------------------------|-5---5---5---5---5---5---5---5----|
E|--------------------------------------|----------------------------------------|

0 reply
Tommo1 446 Mar 10, 2010 12:30 PM

I take it you mean the chorus. You are playing the same notes apart from the E being an octave higher. I'm hearing it as a low E but watching it on youtube I think you could be right in that he plays it as a higher E (fret 7) some of the time.

+1 reply
swave75 382 Jul 05, 2011 06:37 PM

Great tab!!!

guest
You may want to rate the tab now too:
select rating
Wanna post a correction for this tab? Suggest correction