Oops, an error
Loading. Please wait.

Jigsaw Feeling tab

376 views 9 this week
no commentswrite comment
1 2 3 4 5
2 more votes to show rating
add to favorites
×
Save as Personal and add changes to this tab that will be seen only by you. Learn more ›
×
You can save this tab as Personal to edit and correct it or add notes. All changes will be seen only by you. Learn more »
launch autoscroll
font size
0
reset
how to read this tab
guitar tuner
edit
Autoscroll
slow
fast
+/-
esc
set tempo
stop
Author
Difficulty
intermediate
Artist: Siouxsie and the Banshees
Song: "Jigsaw Feeling"
Album: The Scream (1978)



Tuning: Standard



INTRO:
Drums and bass begin the intro, then...
e|------------------------------------------------------------------------------------------------||
B|------------------------------------------------------------------------------------------------||
G|------------------------------------------------------------------------------------------------|| x 2
D|------------------------------------------------------------------------------------------------||
A|------------------------------------------------------------------------------------------------||
E|------------------------------------------------------------------------------------------------||
+
e|-------------------------------------------x-----------x-----x-----------17----17----17----17---|
B|------------------------------------------------------------------------------------------------|
G|------------------------------------------------------------------------------------------------|
D|------------------------------------------------------------------------------------------------|
A|------------------------------------------------------------------------------------------------|
E|------------------------------------------------------------------------------------------------|
+
e|-17----17----17----17----17----17----17----17----17----17----17----17----17----17----17----17---|
B|-------------------------15----15----15----15----15----15----15----15----15----15----15----15---|
G|------------------------------------------------------------------------------------------------|
D|------------------------------------------------------------------------------------------------|
A|------------------------------------------------------------------------------------------------|
E|------------------------------------------------------------------------------------------------|
+
e|-17----17----17----17----17----17----17----17----17----17----17----17----17----17----17----17---|
B|-15----15----15----15----15----15----15----15----15----15----15----15----15----15----15----15---|
G|-------------------------------------------------x-----x-----x-----x-----x-----x-----x-----x----|
D|-------------------------------------------------0-----0-----0-----0-----0-----0-----0-----0----|
A|------------------------------------------------------------------------------------------------|
E|------------------------------------------------------------------------------------------------|
+
e|-17----17----17----17----17----17----17----17----17----17----17----17----17----17----17----17---||
B|-15----15----15----15----15----15----15----15----15----15----15----15----15----15----15----15---||
G|-14----14----14----14----14----14----14----14----14----14----14----14----14----14----14----14---||
D|-0-----0-----0-----0-----0-----0-----0-----0-----0-----0-----0-----0-----0-----0-----0-----0----|| x 6.5
A|------------------------------------------------------------------------------------------------||
E|------------------------------------------------------------------------------------------------||



CHORUS:
e|------------------------------------------------------------------------------------------------|
B|-9-----------------10---------------------------------------------------------------------------|
G|-9-----------------10----------------8-----------9----------------------------------------------|
D|-9-----------------10----------------9-----------10----------------------10----10----10----10---|
A|-7-----------------8-----------------9-----------10----------10----10----10----10----10----10---|
E|-------------------------------------7-----------8-----------8-----8-----8-----8-----8-----8----|
+
e|------------------------------------------------------------------------------------------------|
B|------------------------------------------------------------------------------------------------|
G|-9-----------9-----8-----------8-----7-----------9-----9-----9-----9-----9-----9-----9-----9----|
D|-10----------10----9-----------9-----8-----------7-----7-----7-----7-----7-----7-----7-----7----|
A|-10----------10----9-----------9-----8-----------0-----0-----0-----0-----0-----0-----0-----0----|
E|-8-----------8-----7-----------7-----6----------------------------------------------------------|
+
e|------------------------------------------------------------------------------------------------|
B|------------------------------------------------------------------------------------------------|
G|-9-----9-----9-----9-----9-----9-----9-----9-----7-----7-----7-----7-----7-----7-----7-----7----|
D|-7-----7-----7-----7-----7-----7-----7-----7-----5-----5-----5-----5-----5-----5-----5-----5----|
A|-0-----0-----0-----0-----0-----0-----0-----0-----0-----0-----0-----0-----0-----0-----0-----0----|
E|------------------------------------------------------------------------------------------------|
+
e|------------------------------------------------------------------------------------------------|
B|------------------------------------------------------------------------------------------------|
G|-7-----7-----7-----7-----7-----7-----7-----7-----9-----9-----9-----9-----9-----9-----9-----9----|
D|-5-----5-----5-----5-----5-----5-----5-----5-----7-----7-----7-----7-----7-----7-----7-----7----|
A|-0-----0-----0-----0-----0-----0-----0-----0-----0-----0-----0-----0-----0-----0-----0-----0----|
E|------------------------------------------------------------------------------------------------|
+
e|------------------------------------------------------------------------------------------------|
B|------------------------------------------------------------------------------------------------|
G|-9-----9-----9-----9-----9-----9-----9-----9-----7-----7-----7-----7-----7-----7-----7-----7----|
D|-7-----7-----7-----7-----7-----7-----7-----7-----5-----5-----5-----5-----5-----5-----5-----5----|
A|-0-----0-----0-----0-----0-----0-----0-----0-----0-----0-----0-----0-----0-----0-----0-----0----|
E|------------------------------------------------------------------------------------------------|



VERSE:
e|------------------------------------------------------------------------------------------------|
B|------------------------------------------------------------------------------------------------|
G|-7-----7-----7-----7-----7-----7-----7-----7-----9-----9-----9-----9-----9-----9-----9-----9----|
D|-5-----5-----5-----5-----5-----5-----5-----5-----7-----7-----7-----7-----7-----7-----7-----7----|
A|-0-----0-----0-----0-----0-----0-----0-----0-----0-----0-----0-----0-----0-----0-----0-----0----|
E|------------------------------------------------------------------------------------------------|
+
e|------------------------------------------------------------------------------------------------|
B|------------------------------------------------------------------------------------------------|
G|-9-----9-----9-----9-----9-----9-----9-----9-----10----10----10----10----10----10----10----10---|
D|-7-----7-----7-----7-----7-----7-----7-----7-----8-----8-----8-----8-----8-----8-----8-----8----|
A|-0-----0-----0-----0-----0-----0-----0-----0-----0-----0-----0-----0-----0-----0-----0-----0----|
E|------------------------------------------------------------------------------------------------|
+
e|------------------------------------------------------------------------------------------------|
B|------------------------------------------------------------------------------------------------|
G|-10----10----10----10----10----10----10----10----9-----9-----9-----9-----9-----9-----9-----9----|
D|-8-----8-----8-----8-----8-----8-----8-----8-----7-----7-----7-----7-----7-----7-----7-----7----|
A|-0-----0-----0-----0-----0-----0-----0-----0-----0-----0-----0-----0-----0-----0-----0-----0----|
E|------------------------------------------------------------------------------------------------|
+
e|------------------------------------------------------------------------------------------------|
B|------------------------------------------------------------------------------------------------|
G|-9-----9-----9-----9-----9-----9-----9-----9-----7-----7-----7-----7-----7-----7-----7-----7----|
D|-7-----7-----7-----7-----7-----7-----7-----7-----5-----5-----5-----5-----5-----5-----5-----5----|
A|-0-----0-----0-----0-----0-----0-----0-----0-----0-----0-----0-----0-----0-----0-----0-----0----|
E|------------------------------------------------------------------------------------------------|
+
e|------------------------------------------------------------------------------------------------|
B|------------------------------------------------------------------------------------------------|
G|-7-----7-----7-----7-----7-----7-----7-----7-----9-----9-----9-----9-----9-----9-----9-----9----|
D|-5-----5-----5-----5-----5-----5-----5-----5-----7-----7-----7-----7-----7-----7-----7-----7----|
A|-0-----0-----0-----0-----0-----0-----0-----0-----0-----0-----0-----0-----0-----0-----0-----0----|
E|------------------------------------------------------------------------------------------------|
+
e|------------------------------------------------------------------------------------------------|
B|------------------------------------------------------------------------------------------------|
G|-9-----9-----9-----9-----9-----9-----9-----9-----9-----9-----9-----9-----9-----9-----9-----9----|
D|-7-----7-----7-----7-----7-----7-----7-----7-----7-----7-----7-----7-----7-----7-----7-----7----|
A|-0-----0-----0-----0-----0-----0-----0-----0-----8-----8-----0-----0-----0-----0-----0-----0----|
E|------------------------------------------------------------------------------------------------|
+
e|------------------------------------------------------------------------------------------------||
B|------------------------------------------------------------------------------------------------||
G|-9-----9-----9-----9-----9-----9-----9-----9-----9-----9-----9-----9-----9-----9-----9-----9----|| x 2
D|-7-----7-----7-----7-----7-----7-----7-----7-----7-----7-----7-----7-----7-----7-----7-----7----||
A|-8-----8-----0-----0-----0-----0-----0-----0-----8-----8-----0-----0-----0-----0-----0-----0----||
E|------------------------------------------------------------------------------------------------||



INTERLUDE I:
e|-17----17----17----17----17----17----17----17----17----17----17----17----17----17----17----17---||
B|-15----15----15----15----15----15----15----15----15----15----15----15----15----15----15----15---||
G|-14----14----14----14----14----14----14----14----14----14----14----14----14----14----14----14---||
D|-0-----0-----0-----0-----0-----0-----0-----0-----0-----0-----0-----0-----0-----0-----0-----0----|| x 3.5
A|------------------------------------------------------------------------------------------------||
E|------------------------------------------------------------------------------------------------||



INTERLUDE II:
e|------------------------------------------------------------------------------------------------|
B|------------------------------------------------------------------------------------------------|
G|------------------------------------------------------------------------------------------------|
D|-12----12----12----13----13----13----13----13----12----12----12----13----13----13----13----13---|
A|-0-----0-----0-----0-----0-----0-----0-----0-----0-----0-----0-----0-----0-----0-----0-----0----|
E|------------------------------------------------------------------------------------------------|
+
e|------------------------------------------------------------------------------------------------|
B|------------------------------------------------------------------------------------------------|
G|------------------------------------------------------------------------------------------------|
D|-14----14----14----15----15----15----15----15----14----14----14----15----15----15----15----15---|
A|-0-----0-----0-----0-----0-----0-----0-----0-----0-----0-----0-----0-----0-----0-----0-----0----|
E|------------------------------------------------------------------------------------------------|
+
e|------------------------------------------------------------------------------------------------|
B|------------------------------------------------------------------------------------------------|
G|------------------------------------------------------------------------------------------------|
D|-12----12----12----11----11----11----11----9-----9-----9-----9-----9-----9-----11----12---------|
A|-0-----0-----0-----0-----0-----0-----0-----0-----0-----0-----0-----0-----0-----0-----0----------|
E|------------------------------------------------------------------------------------------------|
+
e|------------------------------------------------------------------------------------------------|
B|------------------------------------------------------------------------------------------------|
G|-------------------------------------------------------12----11---------------------------------|
D|-11----11----11----11----11----11----11----11----11----x-----x-----12----11\---------9----------|
A|-0-----0-----0-----0-----0-----0-----0-----0-----0-----0-----0-----0-----0-----------0----------|
E|------------------------------------------------------------------------------------------------|
+
e|------------------------------------------------------------------------------------------------|
B|------------------------------------------------------------------------------------------------|
G|------------------------------------------------------------------------------------------------|
D|-11----11----11----11----11----11----11----11----14----14----14----15----15----15----15----15---|
A|-0-----0-----0-----0-----0-----0-----0-----0-----0-----0-----0-----0-----0-----0-----0-----0----|
E|------------------------------------------------------------------------------------------------|
+
e|------------------------------------------------------------------------------------------------|
B|------------------------------------------------------------------------------------------------|
G|------------------------------------------------------------------------------------------------|
D|-14----14----14----15----15----15----15----15----12----12----12----11----11----11----11----9----|
A|-0-----0-----0-----0-----0-----0-----0-----0-----0-----0-----0-----0-----0-----0-----0-----0----|
E|------------------------------------------------------------------------------------------------|
+
e|------------------------------------------------------------------------------------------------|
B|------------------------------------------------------------------------------------------------|
G|------------------------------------------------------------------------------------------------|
D|-9-----9-----9-----9-----9-----11----12----------11----11----11----11----11----11----11----11---|
A|-0-----0-----0-----0-----0-----0-----0-----------0-----0-----0-----0-----0-----0-----0-----0----|
E|------------------------------------------------------------------------------------------------|
+
e|------------------------------------------------------------------------------------------------|
B|------------------------------------------------------------------------------------------------|
G|-------12----11---------------------------------------------------------------------------------|
D|-11----x-----x-----12----11\---------9-----------7-----7-----7-----7-----7-----7-----7-----7----|
A|-0-----0-----0-----0-----0-----------0-----------0-----0-----0-----0-----0-----0-----0-----0----|
E|------------------------------------------------------------------------------------------------|
+
e|------------------------------------------------------------------------------------------------|
B|------------------------------------------------------------------------------------------------|
G|-9-----9-----9-----9-----9-----9-----9-----9-----9-----9-----9-----9-----9-----9-----9-----9----|
D|-7-----7-----7-----7-----7-----7-----7-----7-----7-----7-----7-----7-----7-----7-----7-----7----|
A|-0-----0-----0-----0-----0-----0-----0-----0-----0-----0-----0-----0-----0-----0-----0-----0----|
E|------------------------------------------------------------------------------------------------|
+
e|------------------------------------------------------------------------------------------------||
B|------------------------------------------------------------------------------------------------||
G|-9-----9-----9-----9-----9-----9-----9-----9-----9-----9-----9-----9-----9-----9-----9-----9----|| x 2
D|-7-----7-----7-----7-----7-----7-----7-----7-----7-----7-----7-----7-----7-----7-----7-----7----||
A|-8-----8-----0-----0-----0-----0-----0-----0-----8-----8-----0-----0-----0-----0-----0-----0----||
E|------------------------------------------------------------------------------------------------||
+
e|-17----17----17----17----17----17----17----17----17----17----17----17----17----17----17----17---||
B|-15----15----15----15----15----15----15----15----15----15----15----15----15----15----15----15---||
G|-14----14----14----14----14----14----14----14----14----14----14----14----14----14----14----14---||
D|-0-----0-----0-----0-----0-----0-----0-----0-----0-----0-----0-----0-----0-----0-----0-----0----|| x 4.5
A|------------------------------------------------------------------------------------------------||
E|------------------------------------------------------------------------------------------------||



INTERLUDE III:
e|-9-----------------------------------------------9----------------------------------------------|
B|-9-----------------------------------------------9----------------------------------------------|
G|-9-----------------------9-----9-----9-----9-----9-----9-----9-----9-----9-----9-----9-----9----|
D|-7-----------7-----7-----7-----7-----7-----7-----7-----7-----7-----7-----7-----7-----7-----7----|
A|-0-----0-----0-----0-----0-----0-----0-----0-----0-----0-----0-----0-----0-----0-----0-----0----|
E|------------------------------------------------------------------------------------------------|
+
e|-7-----------------------------------------------7----------------------------------------------|
B|-7-----------------------------------------------7-----7-----7-----7-----7-----7-----7-----7----|
G|-7-----------------------7-----7-----7-----7-----7-----7-----7-----7-----7-----7-----7-----7----|
D|-5-----------5-----5-----5-----5-----5-----5-----5-----5-----5-----5-----5-----5-----5-----5----|
A|-0-----0-----0-----0-----0-----0-----0-----0-----0-----0-----0-----0-----0-----0-----0-----0----|
E|------------------------------------------------------------------------------------------------|
+
e|-9-----------------------------------------------9----------------------------------------------|
B|-9-----------------------------------------------9-----9-----9-----9-----9-----9-----9-----9----|
G|-9-----------------------9-----9-----9-----9-----9-----9-----9-----9-----9-----9-----9-----9----|
D|-7-----------7-----7-----7-----7-----7-----7-----7-----7-----7-----7-----7-----7-----7-----7----|
A|-0-----0-----0-----0-----0-----0-----0-----0-----0-----0-----0-----0-----0-----0-----0-----0----|
E|------------------------------------------------------------------------------------------------|
+
e|-7-----------------------------------------------7----------------------------------------------|
B|-7-----------------------------------------------7-----7-----7-----7-----7-----7-----7-----7----|
G|-7-----------------------7-----7-----7-----7-----7-----7-----7-----7-----7-----7-----7-----7----|
D|-5-----------5-----5-----5-----5-----5-----5-----5-----5-----5-----5-----5-----5-----5-----5----|
A|-0-----0-----0-----0-----0-----0-----0-----0-----0-----0-----0-----0-----0-----0-----0-----0----|
E|------------------------------------------------------------------------------------------------|
+
e|-9-----------------------------------------------9----------------------------------------------|
B|-9-----------------------------------------------9-----9-----9-----9-----9-----9-----9-----9----|
G|-9-----------------------9-----9-----9-----9-----9-----9-----9-----9-----9-----9-----9-----9----|
D|-7-----------7-----7-----7-----7-----7-----7-----7-----7-----7-----7-----7-----7-----7-----7----|
A|-0-----0-----0-----0-----0-----0-----0-----0-----0-----0-----0-----0-----0-----0-----0-----0----|
E|------------------------------------------------------------------------------------------------|
+
e|-5-----------------------------------------------5----------------------------------------------|
B|-5-----------------------------------------------5-----5-----5-----5-----5-----5-----5-----5----|
G|-5-----------------------5-----5-----5-----5-----5-----5-----5-----5-----5-----5-----5-----5----|
D|-3-----------3-----3-----3-----3-----3-----3-----3-----3-----3-----3-----3-----3-----3-----3----|
A|-0-----0-----0-----0-----0-----0-----0-----0-----0-----0-----0-----0-----0-----0-----0-----0----|
E|------------------------------------------------------------------------------------------------|
+
e|-9-----------------------------------------------9----------------------------------------------|
B|-9-----------------------------------------------9-----9-----9-----9-----9-----9-----9-----9----|
G|-9-----------------------9-----9-----9-----9-----9-----9-----9-----9-----9-----9-----9-----9----|
D|-7-----------7-----7-----7-----7-----7-----7-----7-----7-----7-----7-----7-----7-----7-----7----|
A|-0-----0-----0-----0-----0-----0-----0-----0-----0-----0-----0-----0-----0-----0-----0-----0----|
E|------------------------------------------------------------------------------------------------|
+
e|-7-----------------------------------------------7----------------------------------------------|
B|-7-----------------------------------------------7-----7-----7-----7-----7-----7-----7-----7----|
G|-7-----------------------7-----7-----7-----7-----7-----7-----7-----7-----7-----7-----7-----7----|
D|-5-----------5-----5-----5-----5-----5-----5-----5-----5-----5-----5-----5-----5-----5-----5----|
A|-0-----0-----0-----0-----0-----0-----0-----0-----0-----0-----0-----0-----0-----0-----0-----0----|
E|------------------------------------------------------------------------------------------------|
+
e|-9-----------------------------------------------9----------------------------------------------|
B|-9-----------------------------------------------9-----9-----9-----9-----9-----9-----9-----9----|
G|-9-----------------------9-----9-----9-----9-----9-----9-----9-----9-----9-----9-----9-----9----|
D|-7-----------7-----7-----7-----7-----7-----7-----7-----7-----7-----7-----7-----7-----7-----7----|
A|-0-----0-----0-----0-----0-----0-----0-----0-----0-----0-----0-----0-----0-----0-----0-----0----|
E|------------------------------------------------------------------------------------------------|



OUTRO:
e|------------------------------------------------------------------------------------------------||
B|------------------------------------------------------------------------------------------------||
G|-9-----9-----x-----x-----x-----x-----x-----9-----9-----9-----x-----x-----x-----x-----x-----9----||
D|-9-----9-----x-----8-----8-----8-----8-----9-----9-----9-----x-----8-----8-----8-----8-----9----|| x 6
A|-7-----7-----x-----0-----0-----0-----0-----7-----7-----7-----x-----0-----0-----0-----0-----7----||
E|------------------------------------------------------------------------------------------------||
+
e|------------------------------------------------------------------------------------------------||
B|------------------------------------------------------------------------------------------------||
G|-x-----x-----x-----x-----x-----x-----x-----x-----x-----x-----x-----x-----x-----x-----x-----x----||
D|-x-----x-----x-----8-----8-----8-----8-----x-----x-----x-----x-----8-----8-----8-----8-----x----|| x 4
A|-x-----x-----x-----0-----0-----0-----0-----x-----x-----x-----x-----0-----0-----0-----0-----x----||
E|------------------------------------------------------------------------------------------------||
+
e|------------------------------------------------------------------------------------------------||
B|------------------------------------------------------------------------------------------------||
G|-x-----x-----x-----x-----x-----x-----x-----x-----x-----x-----x-----x-----x-----x-----x-----x----||
D|-x-----x-----x-----x-----x-----x-----x-----x-----x-----x-----x-----x-----x-----x-----x-----x----|| x 2
A|-x-----x-----x-----x-----x-----x-----x-----x-----x-----x-----x-----x-----x-----x-----x-----x----||
E|------------------------------------------------------------------------------------------------||



SONG STRUCTURE:

INTRO
CHORUS -
Send me forwards-say my feelings
But all the signals-send me reeling
Jigsaw Feeling

VERSE -
One day I'm feeling total
The next I'm split in two
My eyes are doing somersaults
Staring at my shoe
My brain is out of my hand
There's nothing to prevent
The impulse is quite meaningless
In a cerebral non-event

INTERLUDE I
CHORUS -
Send me forwards-say my feelings
But all the signals-send me reeling
Jigsaw Feeling

VERSE -
Five fingers do my walking
Ten toes unravel 'Knots'
Amorphous jigsaw pieces
Falling into slots

INTERLUDE II
CHORUS -
So I just sit in reverie
Getting on my nerves
The intangible bonds that keep me
Sitting on the verge...

VERSE -
Of a breakdown
Of a reaction
Of a result
(defeat me...)..

INTERLUDE III:
Complete me... Maybe... Defeat me
(Jigsaw feeling)

OUTRO

Lyric: Severin Music: Severin/Mckay



That's it.  Feel free to rate, leave comments, ask questions, or make requests.  Cheers!
-Bennyshambles78-



            
            
Suggest correction
Creating personal tab
Creating personal tab
You can edit any tab online and save it as your Personal.

You can edit, replace or remove any tab part or add personal notes – all changes will be seen only by you.

Personal tabs can be accessed anytime from any device, even offline.
Learn more »
Give kudos to tab author, rate the tab!
1 2 3 4 5
comments
print report bad tab
guest
You may want to rate the tab now too:
select rating
Wanna post a correction for this tab? Suggest correction