Oops, an error
Loading. Please wait.

Lands End bass

76 views 3 this week
no commentswrite comment
1 2 3 4 5
3 more votes to show rating
add to favorites
×
Save as Personal and add changes to this tab that will be seen only by you. Learn more ›
×
You can save this tab as Personal to edit and correct it or add notes. All changes will be seen only by you. Learn more »
launch autoscroll
font size
0
reset
guitar tuner
edit
Autoscroll
slow
fast
+/-
esc
set tempo
stop
Author
Difficulty
Siouxsie and the Banshees
Lands End bass tab
From the album Tinderbox (1986)

Transcribed 04/26/2016

Come take this hand at twilight's door
I'll meet you there we'll share the moonlit floor
[Verse 1]
G|-------------------------------11---12-11-|
D|------------------------------------------|
A|---------------------12-------------------|
E|-0--------/10-----------------------------|

Through the driving rain, colours run in veins
Ozone fills the air, two figures disappear
[Verse 2]
G|-----------------------------------9------9-9---|
D|----2-----2---2-----4-----4---4------9--------9-|
A|-0-----0----0----3-----3----3----7--------------|
E|------------------------------------------------|


Come let's take flight, let's quit this scene tonight
[Verse 1]

Whilst they sleep on endless, in their wrecked designs
Sleep on endless in your wrecked designs
[Verse 2]

Moths touched by flame repeat their fatal game
Forever and eternally, the cliffs around the crashing sea
Unsolved and endless, wait for me
[Chorus]
G|--------------------|
D|--------------------|
A|-0------------------|
E|----------0---------|

[Outro]
G|---------------------------------|
D|---------------------------------|
A|-0-0-0-0-0-0-0-0-----------------|
E|-----------------0-0-0-0-0-0-0-0-|

Undulating far below, where lucid waters flow
Their faces seem to know...
[Bridge]
G|---------------------------------|
D|---2---2---2---2-----------------|
A|-0---0---0---0-----3---3---3---3-|
E|-----------------1---1---1---1---|

etc...

            
            
Suggest correction
Creating personal tab
Creating personal tab
You can edit any tab online and save it as your Personal.

You can edit, replace or remove any tab part or add personal notes – all changes will be seen only by you.

Personal tabs can be accessed anytime from any device, even offline.
Learn more »
Give kudos to tab author, rate the tab!
1 2 3 4 5
comments
print report bad tab
guest
You may want to rate the tab now too:
select rating
Wanna post a correction for this tab? Suggest correction