Oops, an error
Loading. Please wait.

Monitor Tab

85 views 6 this week
no commentswrite comment
1 2 3 4 5
3 more votes to show rating
add to favorites
launch autoscroll
font size
0
reset
how to read this tab
guitar tuner
Autoscroll
slow
fast
+/-
esc
set tempo
stop
Help us to improve Ultimate-Guitar.com Take our survey!
×
Author
Difficulty
Tuning
novice
D A D G B E
--------------------------------------------------------------------------------------------------------------
                                    MONITOR - Siouxsie and the Banshees
--------------------------------------------------------------------------------------------------------------
Tabbed by: Daniel Guedes
Email: dguedes@gmail.com

As played here: https://youtu.be/DKcrpTQMS-4


Drop-D tuning!

[Intro]
e|----------------------------------|
B|----------------------------------|
G|----------------------------------|
D|-(0-0-X-X-0-0-X-0-X-0-0--9-9-9-9-)|
A|--9-9-X-X-9-9-X-9-X-9-9--9-9-9-9--|4x
D|--0-0-0-0-0-0-0-0-0-0-0--9-9-9-9--|


[Main riff]
e|-----------------------------------------|
B|----------------------------12-12-12-12--|
G|-11-11-X-X-11-11-X-11-X-11--11-11-11-11--|
D|--0--0-X-X--0--0-X--0-X--0---9--9--9--9--|
A|--9--9-X-X--9--9-X--9-X--9---9--9--9--9--|
D|--0--0-X-X--0--0-X--0-X--0---9--9--9--9--|


[Other riff]
e|-------------------------------------------------|
B|-15-15-15-15-15-15-15-15-15-15-15-15-16-16-16-16-|
G|-14-14-14-14-14-14-14-14-14-14-14-14-15-15-15-15-|
D|-12-12-12-12-12-12-12-12-12-12-12-12-13-13-13-13-|
A|--0--0--0--0--0--0--0--0--0--0--0--0--0--0--0--0-|
D|--0--0--0--0--0--0--0--0--0--0--0--0--0--0--0--0-|


Chords that get played sometimes (C and D) - They're a bit tricky to pull of because of the drop d tuning:

    C    D
e|--8---10--|
B|--8---10--|
G|--9---11--|
D|-10---12--|
A|-10---12--|
D|-10---12--| 


There are some parts that seem to be just loosely hitting open D or something similar. Also, there are some
minor variations on the rhythm of the picking, but they are easier to learn by listening than trying to write
them all out.
Suggest correction
Give kudos to tab author, rate the tab!
1 2 3 4 5
comments
print report bad tab
guest
You may want to rate the tab now too:
select rating
Wanna post a correction for this tab? Suggest correction