Oops, an error
Loading. Please wait.

Jump On It Bass Tab

1,100 views 3 this week
no commentswrite comment
1 2 3 4 5
please rate
add to favorites
launch autoscroll
font size
0
reset
guitar tuner
Autoscroll
slow
fast
+/-
esc
set tempo
stop
Help us to improve Ultimate-Guitar.com Take our survey!
×
Author
Difficulty
advanced
Jump on it is a remake of the actual song called apache by the sugarhill gang wich i 
also make a tab for so here it goes its basically the same thing ecxecpt sir mixalot 
up the words for it.

regular tuning

[----------------------------------------------------------]
[-------7---6---7---7-8-9----------------------------------]
[----------------------------------------------------------]
[----------------------------------------------------------]

[---------------------------------------------------------------------]
[-2--7----2----7----4----2----0--2------------------------------------]
[---------------------------------------------------------------------]
[---------------------------------------------------------------------]


[---------------------------------------------------------------------]
[-2--7----2----7----4----2----0--2------------------------------------]
[---------------------------------------------------------------------]
[---------------------------------------------------------------------]


[-2--7----2----7----4----2----0--2---------------]
[------------------------------------------------]
[------------------------------------------------]
[------------------------------------------------]

[---------------------------------------------------------------------]
[-2--7----2----7----4----2----0--2------------------------------------]
[---------------------------------------------------------------------]
[---------------------------------------------------------------------]


[-----------------]
[-0-2-3-5---------]
[-----------------]
[-----------------]


below is kind of a bass solo or well synth but i think its bass

Hit the string for The Ones on the D string
[-2p0--5p2--7h9p7/5p0---7p5-2-0-2----7h9p7/5p0-0-2------7h9p7/5p0-0-2-]
[--------------------------------------------------9-10---------------]
[---------------------------------------------------------------------]
[---------------------------------------------------------------------]

Hit the string for The Ones on the D string

when he says "bay frisco"
[---------------------------]
[---------------9--10-------]
[---------------------------]
[---------------------------]

Hit the string for The Ones on the D string

[-7p5-2-0-2----7h9p7/5p0-0-2------7h9p7/5p0-0-2-------------------------]
[----------------------------9-10---------------------------------------]
[-----------------------------------------------------------------------]
[-----------------------------------------------------------------------]


Hit Them Whrite after He Says "keena"
[----------------------------------------------]
[---------------------------------------9-10---]
[----------------------------------------------]
[----------------------------------------------]

Hit the string for The Ones on the D string

[-7p5-2-0-2----7h9p7/5p0-0-2------7h9p7/5p0-0-2-------------------------]
[----------------------------9-10---------------------------------------]
[-----------------------------------------------------------------------]
[-----------------------------------------------------------------------]


when he says"Flossin And "
[-------------------------------]
[-------------9-10h12p10h12-----]
[-------------------------------]
[-------------------------------]

Hit the string for The Ones on the D string

[-7p5-2-0-2----7h9p7/5p0-0-2------7h9p7/5p0-0-2-------------------------]
[----------------------------9-10---------------------------------------]
[-----------------------------------------------------------------------]
[-----------------------------------------------------------------------]

"U TURN"
[----------------------------------]
[---------------------9-10---------]
[----------------------------------]
[----------------------------------]


[---------------------------------------------------------------------]
[-2--7----2----7----4----2----0--2------------------------------------]
[---------------------------------------------------------------------]
[---------------------------------------------------------------------]


[---------------------------------------------------------------------]
[-2--7----2----7----4----2----0--2------------------------------------]
[---------------------------------------------------------------------]
[---------------------------------------------------------------------]


[-2--7----2----7----4----2----0--2---------------]
[------------------------------------------------]
[------------------------------------------------]
[------------------------------------------------]

[---------------------------------------------------------------------]
[-2--7----2----7----4----2----0--2------------------------------------]
[---------------------------------------------------------------------]
[---------------------------------------------------------------------]


[-----------------]
[-0-2-3-5---------]
[-----------------]
[-----------------]


Hit the string for The Ones on the D string
[-2p0--5p2--7h9p7/5p0---7p5-2-0-2----7h9p7/5p0-0-2------7h9p7/5p0-0-2-]
[--------------------------------------------------9-10---------------]
[---------------------------------------------------------------------]
[---------------------------------------------------------------------]

Hit the string for The Ones on the D string

when he says"California"
[---------------------------]
[---------------9--10-------]
[---------------------------]
[---------------------------]

Hit the string for The Ones on the D string

[-7p5-2-0-2----7h9p7/5p0-0-2------7h9p7/5p0-0-2-------------------------]
[----------------------------9-10---------------------------------------]
[-----------------------------------------------------------------------]
[-----------------------------------------------------------------------]


Hit Them Whrite after He Says "daughter"
[----------------------------------------------]
[-------------------------------------0-7/12---]
[----------------------------------------------]
[----------------------------------------------]


Hit the string for The Ones on the D string

[-7p5-2-0-2----7h9p7/5p0-0-2------7h9p7/5p0-0-2-------------------------]
[----------------------------9-10------------------9--------------------]
[-----------------------------------------------------------------------]
[-----------------------------------------------------------------------]


Hit the string for The Ones on the D string

[-7p5-2-0-2----7h9p7/5p0-0-2------7h9p7/5p0-0-2-------------------------]
[----------------------------9-10---------------------------------------]
[-----------------------------------------------------------------------]
[-----------------------------------------------------------------------]

[----------------------------------]
[---------------------9-10---------]
[----------------------------------]
[----------------------------------]

[----------------------------------------------------------]
[-------7---6---7---7-8-9----------------------------------]
[----------------------------------------------------------]
[----------------------------------------------------------]

[---------------------------------------------------------------------]
[-2--7----2----7----4----2----0--2------------------------------------]
[---------------------------------------------------------------------]
[---------------------------------------------------------------------]


[---------------------------------------------------------------------]
[-2--7----2----7----4----2----0--2------------------------------------]
[---------------------------------------------------------------------]
[---------------------------------------------------------------------]


[-2--7----2----7----4----2----0--2---------------]
[------------------------------------------------]
[------------------------------------------------]
[------------------------------------------------]

[---------------------------------------------------------------------]
[-2--7----2----7----4----2----0--2------------------------------------]
[---------------------------------------------------------------------]
[---------------------------------------------------------------------]


[-----------------]
[-0-2-3-5---------]
[-----------------]
[-----------------]


Hit the string for The Ones on the D string
[-2p0--5p2--7h9p7/5p0---7p5-2-0-2----7h9p7/5p0-0-2------7h9p7/5p0-0-2-]
[--------------------------------------------------9-10---------------]
[---------------------------------------------------------------------]
[---------------------------------------------------------------------]

Hit the string for The Ones on the D string

when he says "girls in G A "
[---------------------------]
[---------------9--10-------]
[---------------------------]
[---------------------------]

Hit the string for The Ones on the D string

[-7p5-2-0-2----7h9p7/5p0-0-2------7h9p7/5p0-0-2-------------------------]
[----------------------------9-10---------------------------------------]
[-----------------------------------------------------------------------]
[-----------------------------------------------------------------------]


Hit the string for The Ones on the D string

[-7p5-2-0-2----7h9p7/5p0-0-2------7h9p7/5p0-0-2-------------------------]
[----------------------------9-10---------------------------------------]
[-----------------------------------------------------------------------]
[-----------------------------------------------------------------------]


when he says"Rolls In About Eleven"
[-------------------------------]
[-------------9-10h12p10h12-----]
[-------------------------------]
[-------------------------------]

Hit the string for The Ones on the D string

[-7p5-2-0-2----7h9p7/5p0-0-2------7h9p7/5p0-0-2-------------------------]
[----------------------------9-10------------------9--------------------]
[-----------------------------------------------------------------------]
[-----------------------------------------------------------------------]


[----------------------------------]
[---------------------9-10---------]
[----------------------------------]
[----------------------------------]

[-7p5-2-0-2----7h9p7/5p0-0-2------7h9p7/5p0-0-2-------------------------]
[----------------------------9-10------------------9--------------------]
[-----------------------------------------------------------------------]
[-----------------------------------------------------------------------]

[----------------------------------]
[---------------------9-10---------]
[----------------------------------]
[----------------------------------]


[---------------------------------------------------------------------]
[-2--7----2----7----4----2----0--2------------------------------------]
[---------------------------------------------------------------------]
[---------------------------------------------------------------------]


[---------------------------------------------------------------------]
[-2--7----2----7----4----2----0--2------------------------------------]
[---------------------------------------------------------------------]
[---------------------------------------------------------------------]


[-2--7----2----7----4----2----0--2---------------]
[------------------------------------------------]
[------------------------------------------------]
[------------------------------------------------]

[---------------------------------------------------------------------]
[-2--7----2----7----4----2----0--2------------------------------------]
[---------------------------------------------------------------------]
[---------------------------------------------------------------------]


[---------------------------------------------------------------------]
[-2--7----2----7----4----2----0--2------------------------------------]
[---------------------------------------------------------------------]
[---------------------------------------------------------------------]


[---------------------------------------------------------------------]
[-2--7----2----7----4----2----0--2------------------------------------]
[---------------------------------------------------------------------]
[---------------------------------------------------------------------]


[-2--7----2----7----4----2----0--2---------------]
[------------------------------------------------]
[------------------------------------------------]
[------------------------------------------------]

[---------------------------------------------------------------------]
[-2--7----2----7----4----2----0--2------------------------------------]
[---------------------------------------------------------------------]
[---------------------------------------------------------------------]
please correct me im tired it took me a while to figure it out i got confused so its 
really fucked up correction comments all that will be excepted
Suggest correction
What's this?
You can suggest a correction to this tab. Community and Mods will review your correction and vote to approve or reject it.
comments
We did not receive enough feedback on this tab! Please rate:
print report bad tab
1 2 3 4 5
guest
You may want to rate the tab now too:
select rating
Please do not post tabs as comments. Select "correction" instead!