Oops, an error
Loading. Please wait.

Jump On It Tab

version 2
version 2

Intro

1,581 views 6 this week
no commentswrite comment
1 2 3 4 5
please rate
add to favorites
launch autoscroll
font size
0
reset
how to read this tab
guitar tuner
Autoscroll
slow
fast
+/-
esc
set tempo
stop
Help us to improve Ultimate-Guitar.com Take our survey!
×
Author
Difficulty
novice
Sir Mix-a-lot with Jump On It.
In 1996, Sir Mix-A-Lot played off of the lyrics to 
Sugarhill Gang's "Apache" in his hit version of "Jump on It".


This is what i found out! its really simple.


E|---------------------------------------------------------------------|
B|----9-----9----------------------------------------------------------|
G|--------9-----11---9--7--9-------------------------------------------|
D|---------------------------------------------------------------------|
A|---------------------------------------------------------------------|
E|---------------------------------------------------------------------|

E|---------------------------------------------------------------------|
B|----9-----9----------------------------------------------------------|
G|--------9-----11---9--7--9-------------------------------------------|
D|---------------------------------------------------------------------|
A|---------------------------------------------------------------------|
E|---------------------------------------------------------------------|




   (this is the higher one!)
E|----9-----9----------------------------------------------------------|
B|--------9-----11---9--7--9-------------------------------------------|
G|---------------------------------------------------------------------|
D|---------------------------------------------------------------------|
A|---------------------------------------------------------------------|
E|---------------------------------------------------------------------|

E|----9------9---------------------------------------------------------|
B|--------9------11---9---7---7----------------------------------------|
G|---------------------------------------------------------------------|
D|---------------------------------------------------------------------|
A|---------------------------------------------------------------------|
E|---------------------------------------------------------------------|
Suggest correction
Give kudos to tab author, rate the tab!
1 2 3 4 5
comments
print report bad tab
guest
You may want to rate the tab now too:
select rating
Wanna post a correction for this tab? Suggest correction