Oops, an error
Loading. Please wait.

Victims Family Bass Tab

229 views 3 this week
no commentswrite comment
1 2 3 4 5
please rate
add to favorites
launch autoscroll
font size
0
reset
guitar tuner
Autoscroll
slow
fast
+/-
esc
set tempo
stop
Help us to improve Ultimate-Guitar.com Take our survey!
×
#----------------------------------PLEASE NOTE---------------------------------#
#This file is the author's own work and represents their interpretation of the #
#song. You may only use this file for private study, scholarship, or research. #
#------------------------------------------------------------------------------##
From: hanse@camms4.caos.kun.nl (Hans Engelkamp)
Subject: BTAB: Fictims Family - Sir Onslaught

feel free to improve & comment


Victims Family - Sir Onslaught (Voltage & Violets)


G|-10-9-------9------------|-------------------------|
D|------12-10-----10-------|-9h10-9--------9---------|
A|-------------------------|--------12-10------10----|
E|-------------------------|-------------------------|

G|-9h10-9-------9----------|-------------------------|
D|--------12-10-----10-----|-9h10-9--------9---------|
A|-------------------------|--------12-10------------|
E|-------------------------|-------------------------|



G|-------------------------|-------------------------|
D|------------2------------|------------2-------4----|
A|--4-4-0h2h4---0h2h4------|--4-4-0h2h4---0h2h4------|
E|--------------------2----|-------------------------|

G|-------------------------|-------------------------|
D|------------2------------|------------2-------4----|
A|--4-4-0h2h4---0h2h4------|--4-4-0h2h4---0h2h4------|
E|--------------------2----|-------------------------|

G|--0h2p0-----2h4p2----0-2-|-------------------------|
D|--------2---------4------|-------------------------|
A|-------------------------|--0--0--0---0-0----------|
E|-------------------------|-------------------------|

G|-------------------------|-------------------------|
D|-------------------------|--4----------------------|
A|-------------------------|-----3-------------------|
E|--4--4--4---4-4----------|--------2----------------|

G|--------------2----------|--5--4--2----------------|
D|--------1---4------------|------------4-1----------|
A|-----3-------------------|-------------------------|
E|--2----------------------|-------------------------|

G|------8-6----------------|------------6-8----------|
D|----------8-6h7p6--------|--------6h8--------------|
A|--6-6-------------9------|--6-6-9------------------|
E|-------------------------|-------------------------|

G|------------8-6-8--------|-------------------------|
D|--------6h8--------------|-------------------------|
A|--6-6-9------------------|--6-6-6p4---4------------|
E|-------------------------|----------6----6--4--2---|

G|------------6-8----------|--88888p6---6------------|
D|--------6h8--------------|----------8----8--6------|
A|--6-6-9------------------|---------------------9---|
E|-------------------------|-------------------------|

G|-------------6--8--------|--/11-10-8---------------|
D|--------6h8--------------|------------11-8-6-------|
A|--6--9-------------------|-------------------------|
E|-------------------------|-------------------------|

G|-------------------------|--------------11-11-11---|
D|--7-7-7h10p7-------------|--7-7-7h10p7-------------|
A|--------------9-9-9------|-------------------------|
E|-------------------------|-------------------------|

G|-------------------------|--------------11-11-11---|
D|--7-7-7h10p7-------------|--7-7-7h10p7-------------|
A|--------------9-9-9------|-------------------------|
E|-------------------------|-------------------------|

G|--7---7-----7--7---------|--14--14----14-14--------|
D|-------------------------|-------------------------|
A|-------------------------|-------------------------|
E|-------------------------|-------------------------|

G|--19--19----19-19--------|--7p5-5------------------|
D|-------------------------|-----7-7p6p5-------------|
A|-------------------------|------------85-----------|
E|-------------------------|-------------------------|


        .d0>
     .d0F'.:             _   _            __
   <00K.:::'    .d0>     /  /__ _  __    /  _  __,_  //  __ __ _
  @g,`?0b.   .d0F'.:    /--/__// )(     /- / )(_//_)//_)__///// )
  @@@@g,`?0a0F'.:::'  _/  /(_(/ (__)   (__/ ( ( (__(/ \(_(/ (/_/
  @@ ."Y@g_`.:::'                            (_)            /
  @@ ::  @@ ::  .d0>
  @@ ::  @@ ::d0F'.:
  "@ :'  @@ ::'.:::'
         @@ ::::'
         "@ :'




Suggest correction new What's this?
You can suggest a correction to this tab. Community and Mods will review your correction and vote to approve or reject it.
comments
We did not receive enough feedback on this tab! Please rate:
print report bad tab
1 2 3 4 5
guest
You may want to rate the tab now too:
select rating
Please do not post tabs as comments. Select "correction" instead!