Oops, an error
Loading. Please wait.

High tab

by Sir Sly
163 views 12 this week
no commentswrite comment
1 2 3 4 5
3 more votes to show rating
add to favorites
×
Save as Personal and add changes to this tab that will be seen only by you. Learn more ›
×
You can save this tab as Personal to edit and correct it or add notes. All changes will be seen only by you. Learn more »
launch autoscroll
font size
0
reset
how to read this tab
guitar tuner
edit
Autoscroll
slow
fast
+/-
esc
set tempo
stop
About this tab version
This tab is the only full tab for this particular song. It also includes the synth parts in the song. Was this info helpful? Yes No
Tabbed by: lucbuzz 
E-mail: lucbuzz@gmail.com
Tuning: Standard

Most of the instrumentation in this song is synth/sample based, here is transcriptions or those parts
and the actual guitar part. Most of the synth parts can be created using pedals though. A Digitech
Whammy and some fuzz should do the trick at least it did for me.

[Intro/Verse]
In this part there is the normal synth part which keeps the rhythm (V1 Bass has this tabbed)
if played on guitar here would be the chords.Roots of the chords work just as well if a pedal
such as an octave or synth pedal is in use.

    D      Bb     G      F      E5
e|------------------------------------|
B|--7-7-7-----------------------------|
G|--7-7-7--7-7-7--4-4-4--2-2-2--------|
D|--7-7-7--8-8-8--5-5-5--3-3-3--2-2-2-|
A|--5-5-5--8-8-8--5-5-5--3-3-3--2-2-2-|
E|---------6-6-6--3-3-3--1-1-1--0-0-0-|(x6) (8x if including the Pre Chorus)

(0:00 Sample) 
(one hit approx 1 sec apart)
e|-10-10-10-10-10-10-10-10-10-10-10-10-10-10-10-10-----|
B|-----------------------------------------------------|
G|-7--7--7--7--7--7--7--7--7--7--7--7--7--7--7--7------|
D|-----------------------------------------------------|
A|-----------------------------------------------------|
E|-----------------------------------------------------|

[Pre-Chorus]
(0:50)
    D      Bb     G      F      E5
e|------------------------------------|
B|--7-7-7-----------------------------|
G|--7-7-7--7-7-7--4-4-4--2-2-2--------|
D|--7-7-7--8-8-8--5-5-5--3-3-3--2-2-2-|
A|--5-5-5--8-8-8--5-5-5--3-3-3--2-2-2-|
E|---------6-6-6--3-3-3--1-1-1--0-0-0-|(x2)

[Chorus]
     D              Bb         G                  F        C
e|---------------|------------|------------------|-----------------------|
B|---7-7-7-7-7-7-|------------|12-12-12-12-12-12-|10-10-10---------------|
G|---7-7-7-7-7-7-|7-7-7-7-7-7-|12-12-12-12-12-12-|10-10-10--9--9--9------|
D|---7-7-7-7-7-7-|8-8-8-8-8-8-|12-12-12-12-12-12-|10-10-10--10-10-10-----|
A|---5-5-5-5-5-5-|8-8-8-8-8-8-|10-10-10-10-10-10-|8--8--8---10-10-10-----|
E|---------------|6-6-6-6-6-6-|------------------|----------8--8--8------|(x2)

[Verse 2]
    D      Bb     G      F      E5
e|------------------------------------|
B|--7-7-7-----------------------------|
G|--7-7-7--7-7-7--4-4-4--2-2-2--------|
D|--7-7-7--8-8-8--5-5-5--3-3-3--2-2-2-|
A|--5-5-5--8-8-8--5-5-5--3-3-3--2-2-2-|
E|---------6-6-6--3-3-3--1-1-1--0-0-0-|(4x)

[Pre-Verse 2]
    D      Bb     G      F      E5
e|------------------------------------|
B|--7-7-7-----------------------------|
G|--7-7-7--7-7-7--4-4-4--2-2-2--------|
D|--7-7-7--8-8-8--5-5-5--3-3-3--2-2-2-|
A|--5-5-5--8-8-8--5-5-5--3-3-3--2-2-2-|
E|---------6-6-6--3-3-3--1-1-1--0-0-0-|(x2)

[Bridge]
(2:23)
I would recommend just using the roots of the chords at this particular part for the best sound
it sounds better with the claps
  D      Bb     G      F      E5
e|------------------------------------|
B|--7-7-7-----------------------------|
G|--7-7-7--7-7-7--4-4-4--2-2-2--------|
D|--7-7-7--8-8-8--5-5-5--3-3-3--2-2-2-|
A|--5-5-5--8-8-8--5-5-5--3-3-3--2-2-2-|
E|---------6-6-6--3-3-3--1-1-1--0-0-0-|(x2)

(Synth part at 2:39)

(Sustain each note)
e|------------------|
B|------------------|
G|------------------|
D|-----9-7-10/12----|
A|-9-8--------------|
E|------------------|(x2)

[Pre-Chorus 2]
(Nothing here)

[Chorus 2]
     D              Bb         G                  F        C
e|---------------|------------|------------------|---------|-------------|
B|---7-7-7-7-7-7-|------------|12-12-12-12-12-12-|10-10-10-|-------------|
G|---7-7-7-7-7-7-|7-7-7-7-7-7-|12-12-12-12-12-12-|10-10-10-|9--9--9------|
D|---7-7-7-7-7-7-|8-8-8-8-8-8-|12-12-12-12-12-12-|10-10-10-|10-10-10-----|
A|---5-5-5-5-5-5-|8-8-8-8-8-8-|10-10-10-10-10-10-|8--8--8--|10-10-10-----|
E|---------------|6-6-6-6-6-6-|------------------|---------|8--8--8------|(x4)

[Outro]
     D              Bb         G                  F        C
e|---------------|------------|------------------|-----------------------|
B|---7-7-7-7-7-7-|------------|12-12-12-12-12-12-|10-10-10---------------|
G|---7-7-7-7-7-7-|7-7-7-7-7-7-|12-12-12-12-12-12-|10-10-10--9--9--9------|
D|---7-7-7-7-7-7-|8-8-8-8-8-8-|12-12-12-12-12-12-|10-10-10--10-10-10-----|
A|---5-5-5-5-5-5-|8-8-8-8-8-8-|10-10-10-10-10-10-|8--8--8---10-10-10-----|
E|---------------|6-6-6-6-6-6-|------------------|----------8--8--8------|



************************************

| /  Slide up

************************************

            
            
Suggest correction
Creating personal tab
Creating personal tab
You can edit any tab online and save it as your Personal.

You can edit, replace or remove any tab part or add personal notes – all changes will be seen only by you.

Personal tabs can be accessed anytime from any device, even offline.
Learn more »
Give kudos to tab author, rate the tab!
1 2 3 4 5
comments
print report bad tab
guest
You may want to rate the tab now too:
select rating
Wanna post a correction for this tab? Suggest correction