Oops, an error
Loading. Please wait.

Too Far Gone tab

version 1
version 1

Whole song

by Sir Sly
109 views 3 this week
1 commentread comment
1 2 3 4 5
x 3
add to favorites
×
Save as Personal and add changes to this tab that will be seen only by you. Learn more ›
×
You can save this tab as Personal to edit and correct it or add notes. All changes will be seen only by you. Learn more »
launch autoscroll
font size
0
reset
how to read this tab
guitar tuner
edit
Autoscroll
slow
fast
+/-
esc
set tempo
stop
[Intro]
(0:00-0:06)
F Am E

(0:07-0:12)
  F                                       Am
e|---------------------------------------|---------------------------------------|
B|---------------------------------------|---1-----1-----1-----1-----1-----1-----|
G|---2-----2-----2-----2-----2-----2-----|-2-----2---2-----2-----2-----2-----2---|
D|-3-----3---3-----3-----3-----3-----3---|-----2-------2-----2-----2-----2-----2-|
A|-----3-------3-----3-----3-----3-----3-|---------------------------------------|
E|---------------------------------------|---------------------------------------|

(0:13-0:19)
  Em                                      F
e|---------------------------------------|---------------------------------------|
B|---------------------------------------|---------------------------------------|
G|---0-----0-----0-----0-----0-----0-----|---2-----2-----2-----2-----2-----2-----|
D|-2-----2---2-----2-----2-----2-----2---|-3-----3---3-----3-----3-----3-----3---|
A|-----2-------2-----2-----2-----2-----2-|-----3-------3-----3-----3-----3-----3-|
E|---------------------------------------|---------------------------------------|

(0:20-0:25)
 F                                       Am
e|---------------------------------------|---------------------------------------|
B|---------------------------------------|---1-----1-----1-----1-----1-----1-----|
G|---2-----2-----2-----2-----2-----2-----|-2-----2---2-----2-----2-----2-----2---|
D|-3-----3---3-----3-----3-----3-----3---|-----2-------2-----2-----2-----2-----2-|
A|-----3-------3-----3-----3-----3-----3-|---------------------------------------|
E|---------------------------------------|---------------------------------------|

(0:26-0:31)
  Em                                      F
e|---------------------------------------|---------------------------------------|
B|---------------------------------------|---------------------------------------|
G|---0-----0-----0-----0-----0-----0-----|---2-----2-----2-----2-----2-----2-----|
D|-2-----2---2-----2-----2-----2-----2---|-3-----3---3-----3-----3-----3-----3---|
A|-----2-------2-----2-----2-----2-----2-|-----3-------3-----3-----3-----3-----3-|
E|---------------------------------------|---------------------------------------|

[Verse 1]
   F    Am    G     C    Em
e|------------------0-------|
B|------1-----0-----1-------|
G|-2----2-----0----------0--|
D|-3------------------------|
A|--------------------------|
E|--------------------------|

F
I'm stuck inside of these lines I drew
Am
I didn't speak it, but I always knew
G
That I was too far gone
C               Em
Can you ever be too far gone?

[Verse 2]
  F                                       Am
e|---------------------------------------|---------------------------------------|
B|---------------------------------------|---1-----1-----1-----1-----1-----1-----|
G|---2-----2-----2-----2-----2-----2-----|-2-----2---2-----2-----2-----2-----2---|
D|-3-----3---3-----3-----3-----3-----3---|-----2-------2-----2-----2-----2-----2-|
A|-----3-------3-----3-----3-----3-----3-|---------------------------------------|
E|---------------------------------------|---------------------------------------|

  G                                        C             Em
e|---------------------------------------|---0-----0-----------------------------|
B|---0-----0-----0-----0-----0-----0-----|-1---1-----1---0-----0-----0-----0-----|
G|-0-----0---0-----0-----0-----0-----0---|-------0-----0-----0---0-----0-----0---|
D|-----0-------0-----0-----0-----0-----0-|-----------------2-------2-----2-----2-|
A|---------------------------------------|---------------------------------------|
E|---------------------------------------|---------------------------------------|

  G
e|---------------------------------------|
B|---0-----0-----0-----0-----0-----0-----|
G|-0-----0---0-----0-----0-----0-----0---|
D|-----0-------0-----0-----0-----0-----0-|
A|---------------------------------------|
E|---------------------------------------|

F
Never mind the things I said before
Am
I overstated and I shouldn't have sworn
G
That I'm too far gone
C             Em
Can I ever be too far gone?
G
Too far gone

[Chorus]
  F                                       Am
e|---------------------------------------|---------------------------------------|
B|---------------------------------------|---1-----1-----1-----1-----1-----1-----|
G|---2-----2-----2-----2-----2-----2-----|-2-----2---2-----2-----2-----2-----2---|
D|-3-----3---3-----3-----3-----3-----3---|-----2-------2-----2-----2-----2-----2-|
A|-----3-------3-----3-----3-----3-----3-|---------------------------------------|
E|---------------------------------------|---------------------------------------|

  Em                                      F
e|---------------------------------------|---------------------------------------|
B|---------------------------------------|---------------------------------------|
G|---0-----0-----0-----0-----0-----0-----|---2-----2-----2-----2-----2-----2-----|
D|-2-----2---2-----2-----2-----2-----2---|-3-----3---3-----3-----3-----3-----3---|
A|-----2-------2-----2-----2-----2-----2-|-----3-------3-----3-----3-----3-----3-|
E|---------------------------------------|---------------------------------------|

           F
For you to save me, save me
Am
How couldn't you see that I was crazy?
Em
Can we start from the beginning now?
F
It feels like I'm really living now

  F                                       Am
e|---------------------------------------|---------------------------------------|
B|---------------------------------------|---1-----1-----1-----1-----1-----1-----|
G|---2-----2-----2-----2-----2-----2-----|-2-----2---2-----2-----2-----2-----2---|
D|-3-----3---3-----3-----3-----3-----3---|-----2-------2-----2-----2-----2-----2-|
A|-----3-------3-----3-----3-----3-----3-|---------------------------------------|
E|---------------------------------------|---------------------------------------|

  Em                                      F
e|---------------------------------------|---------------------------------------|
B|---------------------------------------|---------------------------------------|
G|---0-----0-----0-----0-----0-----0-----|---2-----2-----2-----2-----2-----2-----|
D|-2-----2---2-----2-----2-----2-----2---|-3-----3---3-----3-----3-----3-----3---|
A|-----2-------2-----2-----2-----2-----2-|-----3-------3-----3-----3-----3-----3-|
E|---------------------------------------|---------------------------------------|

F            Am
Maybe, maybe everyone's a little bit jaded
Em
Can we start from the beginning now?
F
It feels like I'm really living now

[Verse 3]
   F    Am    G     C    Em
e|------------------0-------|
B|------1-----0-----1-------|
G|-2----2-----0----------0--|
D|-3------------------------|
A|--------------------------|
E|--------------------------|

F
They always preached it was black and white
Am
So how come somewhere in the middle feels right
G
Are we too far gone?
C              Em
Can we ever be too far gone?

[Verse 4]
  F                                       Am
e|---------------------------------------|---------------------------------------|
B|---------------------------------------|---1-----1-----1-----1-----1-----1-----|
G|---2-----2-----2-----2-----2-----2-----|-2-----2---2-----2-----2-----2-----2---|
D|-3-----3---3-----3-----3-----3-----3---|-----2-------2-----2-----2-----2-----2-|
A|-----3-------3-----3-----3-----3-----3-|---------------------------------------|
E|---------------------------------------|---------------------------------------|

  G                                        C
e|---------------------------------------|---0-----0---|
B|---0-----0-----0-----0-----0-----0-----|-1---1-----1-|
G|-0-----0---0-----0-----0-----0-----0---|-------0-----|
D|-----0-------0-----0-----0-----0-----0-|-------------|
A|---------------------------------------|-------------|
E|---------------------------------------|-------------|

F                              Am
Am I arrogant, should I not assume
                                           G
That the answer's mine, it can't belong to you
G
Am I too far gone?
C             N.C.
Can I ever be too far gone

[Chorus]
  F                                       Am
e|---------------------------------------|---------------------------------------|
B|---------------------------------------|---1-----1-----1-----1-----1-----1-----|
G|---2-----2-----2-----2-----2-----2-----|-2-----2---2-----2-----2-----2-----2---|
D|-3-----3---3-----3-----3-----3-----3---|-----2-------2-----2-----2-----2-----2-|
A|-----3-------3-----3-----3-----3-----3-|---------------------------------------|
E|---------------------------------------|---------------------------------------|

  Em                                      F
e|---------------------------------------|---------------------------------------|
B|---------------------------------------|---------------------------------------|
G|---0-----0-----0-----0-----0-----0-----|---2-----2-----2-----2-----2-----2-----|
D|-2-----2---2-----2-----2-----2-----2---|-3-----3---3-----3-----3-----3-----3---|
A|-----2-------2-----2-----2-----2-----2-|-----3-------3-----3-----3-----3-----3-|
E|---------------------------------------|---------------------------------------|

           F
For you to save me, save me
Am
How couldn't you see that I was crazy?
Em
Can we start from the beginning now?
F
It feels like I'm really living now

  F                                       Am
e|---------------------------------------|---------------------------------------|
B|---------------------------------------|---1-----1-----1-----1-----1-----1-----|
G|---2-----2-----2-----2-----2-----2-----|-2-----2---2-----2-----2-----2-----2---|
D|-3-----3---3-----3-----3-----3-----3---|-----2-------2-----2-----2-----2-----2-|
A|-----3-------3-----3-----3-----3-----3-|---------------------------------------|
E|---------------------------------------|---------------------------------------|

  Em                                      F
e|---------------------------------------|---------------------------------------|
B|---------------------------------------|---------------------------------------|
G|---0-----0-----0-----0-----0-----0-----|---2-----2-----2-----2-----2-----2-----|
D|-2-----2---2-----2-----2-----2-----2---|-3-----3---3-----3-----3-----3-----3---|
A|-----2-------2-----2-----2-----2-----2-|-----3-------3-----3-----3-----3-----3-|
E|---------------------------------------|---------------------------------------|

F            Am
Maybe, maybe everyone's a little bit jaded
Em
Can we start from the beginning now?
F
It feels like I'm really living now

[Bridge]
  F                  E                 Am
e|-----------------|-----------------|---------------------------------------|
B|-----------------|-----------------|---1-----1-----1-----1-----1-----1-----|
G|---2-----2-----2-|---1-----1-----1-|-2-----2---2-----2-----2-----2-----2---|
D|-3---3-----3-----|-2---2-----2-----|-----2-------2-----2-----2-----2-----2-|
A|-------3-----3---|-------2-----2---|---------------------------------------|
E|-----------------|-----------------|---------------------------------------|

F  E  Am

  F                  E                 A
e|-----------------|-----------------|---------------------------------------|
B|-----------------|-----------------|---2-----2-----2-----2-----2-----2-----|
G|---2-----2-----2-|---1-----1-----1-|-2-----2---2-----2-----2-----2-----2---|
D|-3---3-----3-----|-2---2-----2-----|-----2-------2-----2-----2-----2-----2-|
A|-------3-----3---|-------2-----2---|---------------------------------------|
E|-----------------|-----------------|---------------------------------------|

                                 F  E  A
It feels like I'm really living now

  F                  G                 A
e|-----------------|-----------------|---------------------------------------|
B|-----------------|---0-----0-----0-|---2-----2-----2-----2-----2-----2-----|
G|---2-----2-----2-|-0---0-----0-----|-2-----2---2-----2-----2-----2-----2---|
D|-3---3-----3-----|-------0-----0---|-----2-------2-----2-----2-----2-----2-|
A|-------3-----3---|-----------------|---------------------------------------|
E|-----------------|-----------------|---------------------------------------|

                                 F  G  A
It feels like I'm really living now

  F                                       G
e|---------------------------------------|-----------------|
B|---------------------------------------|---0-----0-----0-|
G|---2-----2-----2-----2-----2-----2-----|-0---0-----0-----|
D|-3-----3---3-----3-----3-----3-----3---|-------0-----0---|
A|-----3-------3-----3-----3-----3-----3-|-----------------|
E|---------------------------------------|-----------------|

                                 F  G
It feels like I'm really living now
N.C.
Am I too far gone

[Chorus]
  F                                       Am
e|---------------------------------------|---------------------------------------|
B|---------------------------------------|---1-----1-----1-----1-----1-----1-----|
G|---2-----2-----2-----2-----2-----2-----|-2-----2---2-----2-----2-----2-----2---|
D|-3-----3---3-----3-----3-----3-----3---|-----2-------2-----2-----2-----2-----2-|
A|-----3-------3-----3-----3-----3-----3-|---------------------------------------|
E|---------------------------------------|---------------------------------------|

  Em                                      F
e|---------------------------------------|---------------------------------------|
B|---------------------------------------|---------------------------------------|
G|---0-----0-----0-----0-----0-----0-----|---2-----2-----2-----2-----2-----2-----|
D|-2-----2---2-----2-----2-----2-----2---|-3-----3---3-----3-----3-----3-----3---|
A|-----2-------2-----2-----2-----2-----2-|-----3-------3-----3-----3-----3-----3-|
E|---------------------------------------|---------------------------------------|

           F
For you to save me, save me
Am
How couldn't you see that I was crazy?
Em
Can we start from the beginning now?
F
It feels like I'm really living now

  F                                       Am
e|---------------------------------------|---------------------------------------|
B|---------------------------------------|---1-----1-----1-----1-----1-----1-----|
G|---2-----2-----2-----2-----2-----2-----|-2-----2---2-----2-----2-----2-----2---|
D|-3-----3---3-----3-----3-----3-----3---|-----2-------2-----2-----2-----2-----2-|
A|-----3-------3-----3-----3-----3-----3-|---------------------------------------|
E|---------------------------------------|---------------------------------------|

  Em                                      F
e|---------------------------------------|---------------------------------------|
B|---------------------------------------|---------------------------------------|
G|---0-----0-----0-----0-----0-----0-----|---2-----2-----2-----2-----2-----2-----|
D|-2-----2---2-----2-----2-----2-----2---|-3-----3---3-----3-----3-----3-----3---|
A|-----2-------2-----2-----2-----2-----2-|-----3-------3-----3-----3-----3-----3-|
E|---------------------------------------|---------------------------------------|

F            Am
Maybe, maybe everyone's a little bit jaded
Em
Can we start from the beginning now?
F
It feels like I'm really living now

[Outro]
(3:05-3:18)
e|---5-4~-----8-5~-------5-4~-------9~-5~-10~------------|
B|----------5---------------------5----------------------|
G|-5-------------------5---------------------------------|
D|-------------------------------------------------------|
A|-------------------------------------------------------|
E|-------------------------------------------------------|

[Main outro]
  F                  E                 Am
e|-----------------|-----------------|---------------------------------------|
B|-----------------|-----------------|---1-----1-----1-----1-----1-----1-----|
G|---2-----2-----2-|---1-----1-----1-|-2-----2---2-----2-----2-----2-----2---|
D|-3---3-----3-----|-2---2-----2-----|-----2-------2-----2-----2-----2-----2-|
A|-------3-----3---|-------2-----2---|---------------------------------------|
E|-----------------|-----------------|---------------------------------------|

F  E  Am

  F                  E                 A
e|-----------------|-----------------|---------------------------------------|
B|-----------------|-----------------|---2-----2-----2-----2-----2-----2-----|
G|---2-----2-----2-|---1-----1-----1-|-2-----2---2-----2-----2-----2-----2---|
D|-3---3-----3-----|-2---2-----2-----|-----2-------2-----2-----2-----2-----2-|
A|-------3-----3---|-------2-----2---|---------------------------------------|
E|-----------------|-----------------|---------------------------------------|

                                 F  E  A
It feels like I'm really living now

  F                                  E
e|---------------------------------|-----------------------------------|
B|---------------------------------|-----------------------------------|
G|---2-----2-----2-----2-----2-----|---1-----1-----1-----1-----1-------|
D|-3---3-----3-----3-----3-----3---|-2---2-----2-----2-----2-----2-----|
A|-------3-----3-----3-----3-----3-|-------2-----2-----2-----2-----2---|
E|---------------------------------|-----------------------------------|

                                  F  E
It feels like I'm really living now



************************************

| ~  Vibrato

************************************
Suggest correction
Creating personal tab
Creating personal tab
You can edit any tab online and save it as your Personal.

You can edit, replace or remove any tab part or add personal notes – all changes will be seen only by you.

Personal tabs can be accessed anytime from any device, even offline.
Learn more »
Give kudos to tab author, rate the tab!
1 2 3 4 5
comments
print report bad tab
1 comment total.
0 reply
james393939 36 Apr 25, 2017 09:00 PM

I feel like it might not do the walk down the chord, just only up. Idk though

guest
You may want to rate the tab now too:
select rating
Wanna post a correction for this tab? Suggest correction