Oops, an error
Loading. Please wait.

Fuck Up Tab

1,637 views 3 this week
1 commentread comment
1 2 3 4 5
please rate
add to favorites
launch autoscroll
font size
0
reset
how to read this tab
guitar tuner
Autoscroll
slow
fast
+/-
esc
set tempo
stop
Help us to improve Ultimate-Guitar.com Take our survey!
×
Author
Difficulty
intermediate
Kick-ass laata som stakk av med seieren i Norske Talenter 2010!
Slik spiller du den paa gitar, veldig lett! Have fun! :)

Dm                                     Am


1--------1--------1--------1--------0--------0--------0--------0--------|
----3--------3--------3--------3--------1--------1--------1--------1----|
--2---2----2---2----2---2----2---2----2---2----2---2----2---2----2---2--|
------------------------------------------------------------------------|
------------------------------------------------------------------------|
------------------------------------------------------------------------|

B#                                    F

------------------------------------------------------------------------|
3--------3--------3--------3--------1--------1--------1--------1--------|
----3--------3--------3--------3--------2--------2--------2--------2----|
--3---3----3---3----3---3----3---3----3---3----3---3----3---3----3---3--|
------------------------------------------------------------------------|
------------------------------------------------------------------------|


Sirius Offical Fan Site: http://www.facebook.com/pages/Sirius/110177692327239?ref=search&v=wall
Suggest correction
Give kudos to tab author, rate the tab!
1 2 3 4 5
comments
print report bad tab
1 comment total.
0 reply
Kr15t1n 15 wrote on December 12 2011, 01:54 pm


|----0--------0--------0--------0--------|
|--------1--------1--------1--------1----|
|------2---2----2---2----2---2----2---2--|
|----------------------------------------|
|----------------------------------------|
|----------------------------------------|


Denne delen synes jeg det passer bedre med en G istedne for A (altså en Am7 istedne for Am) slik:

|----0--------0--------0--------0--------|
|--------1--------1--------1--------1----|
|------0---0----0---0----0---0----0---0--|
|----------------------------------------|
|----------------------------------------|
|----------------------------------------|


Jeg synes ihvertfall G høres bedre ut;)

guest
You may want to rate the tab now too:
select rating
Wanna post a correction for this tab? Suggest correction