Oops, an error
Loading. Please wait.

Como El Cielo Bass Tab

48 views 1 this week
no commentswrite comment
1 2 3 4 5
3 more votes to show rating
add to favorites
launch autoscroll
font size
0
reset
guitar tuner
Autoscroll
slow
fast
+/-
esc
set tempo
stop
Help us to improve Ultimate-Guitar.com Take our survey!
×
Intro

G|------------------------------------||
D|------------------------------------||
A|------------------------------------||
E|---5-5-5-5-5-5-5-5-5-5-5-0-0-0------||  x2


Verso y todo lo demas

G|-------------------------------------------------------------||
D|-------------------------------------------------------------||
A|--------------------------------------99------------1212-----||
E|--5-5-5-5-5-5-5---0---0--0--0-----7-7----7----10-10------10--||

Coro

G|---------------------------------------||
D|---------------------------------------||
A|----------33---------------55----------||
E|--2-2-2-2----2-2---3-3-3-3----33-------|| x3

G|------------------------------------------||
D|------------------------------------------||
A|------------------------------------------||
E|--10-10-10-10-10-10-10-10-10-10-10-10-10--||


Verso

Dime, Dime, Dime como lo haces
Como me haces gritar dije
Como me haces reir dije
COn eso yo lo abraze
Dime como lo haces
Y te prometo
Te prometo
Me voy contigo
Me voy Contigo

Verso

Dando muchas vueltas
Bese su cara senti su piel
Soñando en que manera lo podre
iluminar
Porque estas tan lejos dije
Porque
Porque nunca sabras cuanto te quiero
Cuanto te quiero

Coro

You, soft and only
You, Lost and lonely
You, Strange as angels
Dancing in the deepest ocean
Twisting in the waters
Your just like a dream
Como un sueño

Verso

Cuando llegue el amanecer
Creei dormir por varios dias
Y con su nombre en mis labios
Abri los ojos
Y me encontre sola, sola
Sola antes de un furioso mar
Que me robo a mi coramor
Mi amor ahogado dentro de mi

Coro

You, soft and only
You, Lost and lonely
You, Strange as angels
Dancing in the deepest ocean
Twisting in the waters
Your just like heaven

Just like heaven
Suggest correction
Give kudos to tab author, rate the tab!
1 2 3 4 5
comments
print report bad tab
guest
You may want to rate the tab now too:
select rating
Wanna post a correction for this tab? Suggest correction