Oops, an error
Loading. Please wait.

All For You tab

version 1
version 1

Whole song

Interactive

Video

2,396 views 27 this week
1 commentread comment
1 2 3 4 5
x 3
add to favorites
×
Save as Personal and add changes to this tab that will be seen only by you. Learn more ›
×
You can save this tab as Personal to edit and correct it or add notes. All changes will be seen only by you. Learn more »
launch autoscroll
font size
0
reset
how to read this tab
guitar tuner
backing track
0:00
0:00
edit
Autoscroll
slow
fast
+/-
esc
set tempo
stop
-------------------------------------------------------------------------------
                             All For You - Sister Hazel
-------------------------------------------------------------------------------
Tabbed by: Sovaso
E-mail: unreal.ncash@gmail.com
Played on: , Gibson Les Paul(Just Full Band Version), Martin 12-String acoustic (Original and Full Band)
Tuning: Standard
Original Album: Somewhere More Familiar (Full band), Sister Hazel (Original)
Guitar Performed by: Ken Block (Acoustic) and Andrew Copeland (Electric)

Note: I have tabbed the full band version here, for the original, put a capo on 2 instead of 1 and 
play only the acoustic guitar parts on a twelve string guitar.

CAPO ON 1 FOR ALL GUITARS!
Intro
Acoustic
e|-3-3-------3--------3-------3--------3-------------------------------------|
B|-3---3-------3--------3-------3------3-------------------------------------|
G|-0-----0-------0--------0-------0----0-------------------------------------|
D|-0-------0-------0-------0--------0--0-------------------------------------|
A|-2-----------------------------------2-------------------------------------|
E|-3-----------------------------------3-------------------------------------|

Verse 1
Acoustic
   Rake-| Am        D             Am              D
e|-0------0--0-0-x--2--2-0-2-2--0-0--0-0--0-0-0-0-2--2-0-2-2--|
B|--1-----1--1-1-x--3--3-3-3-3--0-1--1-1--1-1-1-0-3--3-3-3-3--|
G|---2----2--2-2-x--2--2-2-2-2--0-2--2-2--2-2-2---2--2-2-2-2--|
D|----2---2--2-2-x--0--0-0-0-0----2--2-2--2-2-2---0--0-0-0-0--| 
A|-----0--0--0-0------------------0--0-0--0-0-0---------------|
E|------------------------------------------------------------|
         "Finally I Figured out..."
    Am        D             Am              D
e|--0--0-0-x--2--2-0-2-2--0-0--0-0--0-0-0-0-2--2-0-2-2--|
B|--1--1-1-x--3--3-3-3-3--0-1--1-1--1-1-1-0-3--3-3-3-3--|
G|--2--2-2-x--2--2-2-2-2--0-2--2-2--2-2-2---2--2-2-2-2--|
D|--2--2-2-x--0--0-0-0-0----2--2-2--2-2-2---0--0-0-0-0--| 
A|--0--0-0------------------0--0-0--0-0-0---------------|
E|------------------------------------------------------|

Pre Chorus
Part divides into acoustic and electric
     Acoustic
      Em            Am            Em               Am        Em          Am               D 
|--e|-0--0-0--0-0-0-0--0-0--0-0-0-0--0-0--0-0-0-0--0-0-0-0-0-0-0-0-0-0-0-0--0-0-0-0-0--x--2-0h2-2--0h2-2-|
|  B|-0--0-0--0-0-0-1--1-1--1-1-1-0--0-0--0-0-0-1--1-1-1-1-1-0-0-0-0-0-0-1--1-1-1-1-1--x--3-3---3--3---3-|
|  G|-0--0-0--0-0-0-2--2-2--2-2-2-0--0-0--0-0-0-2--2-2-2-2-2-0-0-0-0-0-0-2--2-2-2-2-2--x--2-2---2--2---2-|
|  D|-2--2-2--2-2-2-2--2-2--2-2-2-2--2-2--2-2-2-2--2-2-2-2-2-2-2-2-2-2-2-2--2-2-2-2-2--x--0-0---0--0---0-|
|  A|-2--2-2--2-2-2-0--0-0--0-0-0-2--2-2--2-2-2-0--0-0-0-0-0-2-2-2-2-2-2-0--0-0-0-0-0--x-----------------|
|  E|-0--0-0--0-0-0---------------0--0-0--0-0-0--------------0-0-0-0-0-0---------------x-----------------|
|     "There's been times..."                                                      "Walk away! Yeah yeah"     
|       
|   Electric Clean (Noodle a bit here)
|  e|-0-------------------------------------------------x----3-------------------------x--2--------------|
|  B|--0-------------0h1--------1h0---------------------x------3-----------------------x--3--------------|
|  G|---0-----------------------------------------------x--------0---------------------x--2--------------|
|  D|----2----------------------------------------------x----------0-------------------x--0--------------|
|  A|-----2---------------------------------------------x------------------------------x-----------------|
|--E|------0--------------------------------------------x------------------------------x-----------------|

Chorus
Both guitars
   G    C9     Am     D    Dsus G    C9    Am    D    Dsus
e|-3-x--3-3--x-0-0-x--2--2-2h3--3-x--3-3-x-0-0-x-2--2-2h3-|
B|-3-x--3-3--x-1-1-x--3--3-3----3-x--3-3-x-1-1-x-3--3-3---|
G|-0-x--0-0--x-2-2-x--2--2-2----0-x--0-0-x-2-2-x-2--2-2---|
D|-0-x--2-2--x-2-2-x--0--0-0----0-x--2-2-x-2-2-x-0--0-0---|
A|-2-x--3-3--x-0-0-x------------2-x--3-3-x-0-0-x----------|
E|-3-x-------x-----x------------3-x------x-----x----------|
    "It's hard to say what it is I see in you..."

   G    C9     Am     D    Dsus G    C9    Am    D    Dsus
e|-3-x--3-3--x-0-0-x--2--2-2h3--3-x--3-3-x-0-0-x-2--2-2h3-|
B|-3-x--3-3--x-1-1-x--3--3-3----3-x--3-3-x-1-1-x-3--3-3---|
G|-0-x--0-0--x-2-2-x--2--2-2----0-x--0-0-x-2-2-x-2--2-2---|
D|-0-x--2-2--x-2-2-x--0--0-0----0-x--2-2-x-2-2-x-0--0-0---|
A|-2-x--3-3--x-0-0-x------------2-x--3-3-x-0-0-x----------|
E|-3-x-------x-----x------------3-x------x-----x----------|

   G    C9      G
e|-3--x-3--3--3-3--|
B|-3--x-3--3--3-3--|
G|-0--x-0--0--0-0--|
D|-0--x-2--2--2-0--|
A|-2--x-3--3--3-2--|
E|-3--x---------3--|

Verse 2
Acoustic
   Rake-| Am        D             Am              D
e|-0------0--0-0-x--2--2-0-2-2--0-0--0-0--0-0-0-0-2--2-0-2-2--|
B|--1-----1--1-1-x--3--3-3-3-3--0-1--1-1--1-1-1-0-3--3-3-3-3--|
G|---2----2--2-2-x--2--2-2-2-2--0-2--2-2--2-2-2---2--2-2-2-2--|
D|----2---2--2-2-x--0--0-0-0-0----2--2-2--2-2-2---0--0-0-0-0--| 
A|-----0--0--0-0------------------0--0-0--0-0-0---------------|
E|------------------------------------------------------------|
         "I thought I'd seen it all.."
    Am        D             Am              D
e|--0--0-0-x--2--2-0-2-2--0-0--0-0--0-0-0-0-2--2-0-2-2--|
B|--1--1-1-x--3--3-3-3-3--0-1--1-1--1-1-1-0-3--3-3-3-3--|
G|--2--2-2-x--2--2-2-2-2--0-2--2-2--2-2-2---2--2-2-2-2--|
D|--2--2-2-x--0--0-0-0-0----2--2-2--2-2-2---0--0-0-0-0--| 
A|--0--0-0------------------0--0-0--0-0-0---------------|
E|------------------------------------------------------|

Pre Chorus
     Acoustic
      Em            Am            Em               Am        Em          Am               D 
|--e|-0--0-0--0-0-0-0--0-0--0-0-0-0--0-0--0-0-0-0--0-0-0-0-0-0-0-0-0-0-0-0--0-0-0-0-0--x--2-0h2-2--0h2-2-|
|  B|-0--0-0--0-0-0-1--1-1--1-1-1-0--0-0--0-0-0-1--1-1-1-1-1-0-0-0-0-0-0-1--1-1-1-1-1--x--3-3---3--3---3-|
|  G|-0--0-0--0-0-0-2--2-2--2-2-2-0--0-0--0-0-0-2--2-2-2-2-2-0-0-0-0-0-0-2--2-2-2-2-2--x--2-2---2--2---2-|
|  D|-2--2-2--2-2-2-2--2-2--2-2-2-2--2-2--2-2-2-2--2-2-2-2-2-2-2-2-2-2-2-2--2-2-2-2-2--x--0-0---0--0---0-|
|  A|-2--2-2--2-2-2-0--0-0--0-0-0-2--2-2--2-2-2-0--0-0-0-0-0-2-2-2-2-2-2-0--0-0-0-0-0--x-----------------|
|  E|-0--0-0--0-0-0---------------0--0-0--0-0-0--------------0-0-0-0-0-0---------------x-----------------|
|     "There's been times..."                                                      "Walk away! Yeah yeah"     
|       
|   Electric Clean (noodle around a bit here)
|  e|-0-------------------------------------------------x----3-------------------------x--2--------------|
|  B|--0-------------0h1--------1h0---------------------x------3-----------------------x--3--------------|
|  G|---0-----------------------------------------------x--------0---------------------x--2--------------|
|  D|----2----------------------------------------------x----------0-------------------x--0--------------|
|  A|-----2---------------------------------------------x------------------------------x-----------------|
|--E|------0--------------------------------------------x------------------------------x-----------------|

Chorus
Both guitars
   G    C9     Am     D    Dsus G    C9    Am    D    Dsus
e|-3-x--3-3--x-0-0-x--2--2-2h3--3-x--3-3-x-0-0-x-2--2-2h3-|
B|-3-x--3-3--x-1-1-x--3--3-3----3-x--3-3-x-1-1-x-3--3-3---|
G|-0-x--0-0--x-2-2-x--2--2-2----0-x--0-0-x-2-2-x-2--2-2---|
D|-0-x--2-2--x-2-2-x--0--0-0----0-x--2-2-x-2-2-x-0--0-0---|
A|-2-x--3-3--x-0-0-x------------2-x--3-3-x-0-0-x----------|
E|-3-x-------x-----x------------3-x------x-----x----------|
   "It's hard to say what it is I see in you..."

   G    C9     Am     D    Dsus G    C9    Am    D    Dsus
e|-3-x--3-3--x-0-0-x--2--2-2h3--3-x--3-3-x-0-0-x-2--2-2h3-|
B|-3-x--3-3--x-1-1-x--3--3-3----3-x--3-3-x-1-1-x-3--3-3---|
G|-0-x--0-0--x-2-2-x--2--2-2----0-x--0-0-x-2-2-x-2--2-2---|
D|-0-x--2-2--x-2-2-x--0--0-0----0-x--2-2-x-2-2-x-0--0-0---|
A|-2-x--3-3--x-0-0-x------------2-x--3-3-x-0-0-x----------|
E|-3-x-------x-----x------------3-x------x-----x----------|

   G    C9      G
e|-3--x-3--3--3-3--|
B|-3--x-3--3--3-3--|
G|-0--x-0--0--0-0--|
D|-0--x-2--2--2-0--|
A|-2--x-3--3--3-2--|
E|-3--x---------3--|

Interlude
 Acoustic plays everything, while electric plays the chords
e|-3-3-------0--0--------3--3------0--0------3-3------0-0-----x--2----2--2---|
B|-3----3----3-----3-----3----3----0----0----3---3----3---3---x--3----3--3---|
G|-0------0--0--------0--0------0--0------0--0-----0--0----0--x--2----2--2---|
D|-2---------2-----------2---------2---------2--------2-------x--0----0--0---|
A|-3---------2-----------3---------2---------3--------2-------x--------------|
E|-----------0---------------------0------------------0-------x--------------|
  "Rain comes pouring down..."

Guitar Solo
Electric Distortion
e|---------------------------------------------------------------------------------|
B|---------------------------------------------------------------------------------|
G|-------------------------------------------------13-12---12----------------------|
D|-------10/11/13--13-13-13-13---13-13-13-13-15-15-------15---15-13-15--13----13~~~|
A|-10/11-------------------------------------------------------------------15------|
E|---------------------------------------------------------------------------------|

e|---------------------------------------------------------------------------|
B|---------------------------------------------------------------------------|
G|-----------------------------12-13-15b17~~~~~~~~~~~~rb15--13p12-13---------|
D|------10-------11------13-15-----------------------------------------------|
A|-10/11---11/13----13/15----------------------------------------------------|
E|---------------------------------------------------------------------------|
                  Bend up to 18----|
e|---------------------------------------------------------------------------|
B|----------13-14-16b-16-16-16-16-16-rb16p14p13-14-14-13----13-14-16--14p13--|
G|----13-15----------------------------------------------15----------------15|
D|-15------------------------------------------------------------------------|
A|---------------------------------------------------------------------------|
E|---------------------------------------------------------------------------|

e|---------------------------------------------------------------------------|
B|-13------------------------------------------------------------------------|
G|----15b17-13\12/13-15--------------------------------------13-13-----------|
D|----------------------15p13p11----------------------13h15--------15--------|
A|-------------------------------15p13p11----11h13h15------------------------|
E|----------------------------------------15---------------------------------|

e|-------------------------x16b18rb16p13-16----------16----------------------|
B|------------------------x-----------------16---13------16b17-16b17rb16b17~~|
G|-13-13-13-15b16~~rb15p13---------------------------------------------------|
D|---------------------------------------------------------------------------|
A|---------------------------------------------------------------------------|
E|---------------------------------------------------------------------------|

Acoustic plays this 4 times under that
  G    C9     Am     D    Dsus G    C9    Am    D    Dsus
e|-3-x--3-3--x-0-0-x--2--2-2h3--3-x--3-3-x-0-0-x-2--2-2h3-|
B|-3-x--3-3--x-1-1-x--3--3-3----3-x--3-3-x-1-1-x-3--3-3---|
G|-0-x--0-0--x-2-2-x--2--2-2----0-x--0-0-x-2-2-x-2--2-2---|
D|-0-x--2-2--x-2-2-x--0--0-0----0-x--2-2-x-2-2-x-0--0-0---|
A|-2-x--3-3--x-0-0-x------------2-x--3-3-x-0-0-x----------|
E|-3-x-------x-----x------------3-x------x-----x----------|

Verse 3
Acoustic
   Rake-| Am        D             Am              D
e|-0------0--0-0-x--2--2-0-2-2--0-0--0-0--0-0-0-0-2--2-0-2-2--|
B|--1-----1--1-1-x--3--3-3-3-3--0-1--1-1--1-1-1-0-3--3-3-3-3--|
G|---2----2--2-2-x--2--2-2-2-2--0-2--2-2--2-2-2---2--2-2-2-2--|
D|----2---2--2-2-x--0--0-0-0-0----2--2-2--2-2-2---0--0-0-0-0--| 
A|-----0--0--0-0------------------0--0-0--0-0-0---------------|
E|------------------------------------------------------------|
         "Finally I Figured out..."
    Am        D             Am              D
e|--0--0-0-x--2--2-0-2-2--0-0--0-0--0-0-0-0-2--2-0-2-2--|
B|--1--1-1-x--3--3-3-3-3--0-1--1-1--1-1-1-0-3--3-3-3-3--|
G|--2--2-2-x--2--2-2-2-2--0-2--2-2--2-2-2---2--2-2-2-2--|
D|--2--2-2-x--0--0-0-0-0----2--2-2--2-2-2---0--0-0-0-0--| 
A|--0--0-0------------------0--0-0--0-0-0---------------|
E|------------------------------------------------------|

Pre Chorus
Part divides into acoustic and electric
     Acoustic
      Em            Am            Em               Am        Em          Am               D 
|--e|-0--0-0--0-0-0-0--0-0--0-0-0-0--0-0--0-0-0-0--0-0-0-0-0-0-0-0-0-0-0-0--0-0-0-0-0--x--2-0h2-2--0h2-2-|
|  B|-0--0-0--0-0-0-1--1-1--1-1-1-0--0-0--0-0-0-1--1-1-1-1-1-0-0-0-0-0-0-1--1-1-1-1-1--x--3-3---3--3---3-|
|  G|-0--0-0--0-0-0-2--2-2--2-2-2-0--0-0--0-0-0-2--2-2-2-2-2-0-0-0-0-0-0-2--2-2-2-2-2--x--2-2---2--2---2-|
|  D|-2--2-2--2-2-2-2--2-2--2-2-2-2--2-2--2-2-2-2--2-2-2-2-2-2-2-2-2-2-2-2--2-2-2-2-2--x--0-0---0--0---0-|
|  A|-2--2-2--2-2-2-0--0-0--0-0-0-2--2-2--2-2-2-0--0-0-0-0-0-2-2-2-2-2-2-0--0-0-0-0-0--x-----------------|
|  E|-0--0-0--0-0-0---------------0--0-0--0-0-0--------------0-0-0-0-0-0---------------x-----------------|
|     "There's been times..."                                                      "Walk away! Yeah yeah"     
|       
|   Electric Clean (Noodle a bit here)
|  e|-0-------------------------------------------------x----3-------------------------x--2--------------|
|  B|--0-------------0h1--------1h0---------------------x------3-----------------------x--3--------------|
|  G|---0-----------------------------------------------x--------0---------------------x--2--------------|
|  D|----2----------------------------------------------x----------0-------------------x--0--------------|
|  A|-----2---------------------------------------------x------------------------------x-----------------|
|--E|------0--------------------------------------------x------------------------------x-----------------|

Chorus breakdown
Rest for 10 Bars

Final Chorus
Both guitars
   G    C9     Am     D    Dsus G    C9    Am    D    Dsus
e|-3-x--3-3--x-0-0-x--2--2-2h3--3-x--3-3-x-0-0-x-2--2-2h3-|
B|-3-x--3-3--x-1-1-x--3--3-3----3-x--3-3-x-1-1-x-3--3-3---|
G|-0-x--0-0--x-2-2-x--2--2-2----0-x--0-0-x-2-2-x-2--2-2---|
D|-0-x--2-2--x-2-2-x--0--0-0----0-x--2-2-x-2-2-x-0--0-0---|
A|-2-x--3-3--x-0-0-x------------2-x--3-3-x-0-0-x----------|
E|-3-x-------x-----x------------3-x------x-----x----------|
   "It's hard to say what it is I see in you..."

   G    C9     Am     D    Dsus G    C9    Am    D    Dsus
e|-3-x--3-3--x-0-0-x--2--2-2h3--3-x--3-3-x-0-0-x-2--2-2h3-|
B|-3-x--3-3--x-1-1-x--3--3-3----3-x--3-3-x-1-1-x-3--3-3---|
G|-0-x--0-0--x-2-2-x--2--2-2----0-x--0-0-x-2-2-x-2--2-2---|
D|-0-x--2-2--x-2-2-x--0--0-0----0-x--2-2-x-2-2-x-0--0-0---|
A|-2-x--3-3--x-0-0-x------------2-x--3-3-x-0-0-x----------|
E|-3-x-------x-----x------------3-x------x-----x----------|

Outro
e|---------------------------------------------------------------------------|
B|-----------------------------------------------16-16-----------------------|
G|---------------------------------12-13-15b17---------15--13--15-13--15-----|
D|----10-10~~----10~~------13--15----------------------15--------------------|
A|-11---------11-------16----------------------------------------------------|
E|---------------------------------------------------------------------------|


Acoustic Plays
   G    C9     Am     D    Dsus G    C9    Am    D    Dsus
e|-3-x--3-3--x-0-0-x--2--2-2h3--3-x--3-3-x-0-0-x-2--2-2h3-|
B|-3-x--3-3--x-1-1-x--3--3-3----3-x--3-3-x-1-1-x-3--3-3---|
G|-0-x--0-0--x-2-2-x--2--2-2----0-x--0-0-x-2-2-x-2--2-2---|
D|-0-x--2-2--x-2-2-x--0--0-0----0-x--2-2-x-2-2-x-0--0-0---|
A|-2-x--3-3--x-0-0-x------------2-x--3-3-x-0-0-x----------|
E|-3-x-------x-----x------------3-x------x-----x----------|

Finale
  G    C9      G
e|-3--x-3--3--3-3--|
B|-3--x-3--3--3-3--|
G|-0--x-0--0--0-0--|
D|-0--x-2--2--2-0--|
A|-2--x-3--3--3-2--|
E|-3--x---------3--|


That's it! Rate and comment Please! 
~Sovaso


************************************

| /   slide up
| \   slide down
| h   hammer-on
| p   pull-off
| ~   vibrato
| +   harmonic
| x   Mute note
| b   Bend
| pb  Pre-bend
| br  Bend release
| pbr Pre-bend release
| brb Bend release bend

************************************

            
            
Suggest correction
Creating personal tab
Creating personal tab
You can edit any tab online and save it as your Personal.

You can edit, replace or remove any tab part or add personal notes – all changes will be seen only by you.

Personal tabs can be accessed anytime from any device, even offline.
Learn more »
Give kudos to tab author, rate the tab!
1 2 3 4 5
comments
print report bad tab
1 comment total.
+1 reply
bricanterbury 10 Apr 02, 2017 11:29 AM

Nice tab, well done. sounds great and easy for a beginner like myself to follow. thanks for the good work!

guest
You may want to rate the tab now too:
select rating
Wanna post a correction for this tab? Suggest correction