Oops, an error
Loading. Please wait.

All For You Bass Tab

version 2
version 2

Whole song

Interactive

6,166 views 15 this week
no commentswrite comment
1 2 3 4 5
excellent!
x 7
add to favorites
launch autoscroll
font size
0
reset
guitar tuner
Autoscroll
slow
fast
+/-
esc
set tempo
stop
Help us to improve Ultimate-Guitar.com Take our survey!
×
Difficulty
novice
			     All For You - Sister Hazel
-------------------------------------------------------------------------------
This is my first tab so less hate and more love! It sounds a bit more accurate than the 
tab listed here.
NOT 100% but should be solid enough that you can tweak!
Tabbed By : Mac Tremblay
e-mail: newmanwinter@hotmail.com

Tuning: Standard

Intro (Guitar only til :19)
G|----------------------------------------------------------------------------|
D|----------------------------------------------------------------------------|
A|----------------1*-----------1--1*------------1--1*----/6--6*---------------|
E|----0-0--1*-----------1--1*-----------1--1*---------------------------------|

Chorus (:34) (Feel free to mess with the hammer ons and pulloffs)
G|--------------------------------------------------|I
D|--------------------------------------------------|I
A|-------4-4-----6h8p6-----------4-4------6h8p6-----|I   (repeat pattern 2X)
E|---4-4-----6-6----------4h6p4-------6-6-----------|I

G|------------------------|
D|------------------------|
A|------4--4--------------|
E|---4--------6---4*------|

Verse (:51) (play softly)
G|--------------------------------------------------------------------------|
D|--------------------------------------------------------------------------|
A|--------6--6*--------6--6*-------6--6*-------6--6*----------0--1*---------|
E|----6*----------6*------------6----------6-----------00 1*----------------|

G|--------------------------------------------------------------------------|
D|--------------------------------------------------------------------------|
A|-----1-1*--------1--1*-------/6*------------------------------------------|
E|-1*----------1*-----------------------------------------------------------|

Chorus 2 (1:19)
G|--------------------------------------------------|I
D|--------------------------------------------------|I
A|-------4-4-----6h8p6-----------4-4------6h8p6-----|I   (repeat pattern 2X)
E|---4-4-----6-6----------4h6p4-------6-6-----------|I

G|------------------------|
D|------------------------|
A|------4--4--------------|
E|---4--------6---4*------|

Bridge (1:36)
G|--------------------------------------------------------------------------|
D|--------------------------------------------------------------------------|
A|-----4*---------4*-------2h3--4*---------4*----6*-------------------------|
E|----------1*---------2h3-----------1*-------------------------------------|

Solo (1:53)
G|--------------------------------------------------|I
D|--------------------------------------------------|I
A|-------4-4-----6h8p6-----------4-4------6h8p6-----|I   (repeat pattern 4X)
E|---4-4-----6-6----------4h6p4-------6-6-----------|I


Breakdown (2:21)  (Play 6's softly or nothing until the 1's come in at 2:34)
G|--------------------------------------------------------------------------|
D|--------------------------------------------------------------------------|
A|--------6--6*--------6--6*-------6--6*-------6--6*----------0--1*---------|
E|----6*----------6*------------6----------6-----------00 1*----------------|

G|--------------------------------------------------------------------------|
D|--------------------------------------------------------------------------|
A|-----1-1*--------1--1*-------/6*------------------------------------------|
E|-1*----------1*-----------------------------------------------------------|

Drums and Vocals only part (2:49)

Last Chorus (3:06)
G|--------------------------------------------------|I
D|--------------------------------------------------|I
A|-------4-4-----6h8p6-----------4-4------6h8p6-----|I   (repeat pattern 4X)
E|---4-4-----6-6----------4h6p4-------6-6-----------|I


End part (3:31)
G|--------------------------------------------------------------------------|
D|--------------------------------------------------------------------------|
A|------4--4----------------------------------------------------------------|
E|---4--------6---4*--------------------------------------------------------|

Hope it works for ya!


*    Let note ring
| /  slide up
| h  hammer-on
| p  pull-off
Suggest correction
comments
print report bad tab
guest
You may want to rate the tab now too:
select rating
Please do not post tabs as comments. Select "correction" instead!