Oops, an error
Loading. Please wait.

Beautiful High Tab

1,366 views 1 this week
no commentswrite comment
1 2 3 4 5
3 more votes to show rating
add to favorites
launch autoscroll
font size
0
reset
how to read this tab
guitar tuner
Autoscroll
slow
fast
+/-
esc
set tempo
stop
Help us to improve Ultimate-Guitar.com Take our survey!
×
Author
Difficulty
novice
#----------------------------------PLEASE NOTE--------------------------------#
#This file is the author's own work and represents their interpretation of the#
#song. You may only use this file for private study, scholarship, or research.#
#-----------------------------------------------------------------------------#
#-- File created with Instab - http://www.pconline.com/~smcarey/instab.html --#
#-----------------------------------------------------------------------------#

Author/Artist: Sister Hazel
Title: Beautiful High
Album: Absolutely
Transcribed by: Matt Shafer
Email: Shafe716@yahoo.com

Feel free to comment on what you think.    The first 2 bars of the song are just
 strumming the E5 chord.

Intro           Verse
-0---0---0---0-|---0---0---0---0---0---0---0---0------------------------------|
-0---0---0---0-|---0---0---0---0---0---0---0---0------------------------------|
-9---8---6---6-|---9---6---9---6---9---6---6---4------------------------------|
-9---9---7---7-|---9---7---9---7---9---7---6---4------------------------------|
-7---9---7---7-|---7---7---7---7---7---7---4---2------------------------------|
-0---7---5---5-|---0---5---0---5---0---5---0---0------------------------------|
 E5  B5  A5  A5    E5  A5  E5  A5  E5  A5  C#5 Bm5


--0---0---0---0---0---0---0---0---0-------------------------------------------|
--0---0---0---0---0---0---0---0---0-------------------------------------------|
-/9---6---9---6---9---6---6---4---2-------------------------------------------|
-/9---7---9---7---9---7---6---4---2-------------------------------------------|
-/7---7---7---7---7---7---4---2---0-------------------------------------------|
--0---5---0---5---0---5---0---0---0-------------------------------------------|
  E5  A5  E5  A5  E5  A5  C#5 Bm5 A5

Chorus
-0---0---0---0-|-0---0---0---0-|-0---0---0---0--------------------------------|
-0---0---0---0-|-0---0---0---0-|-0---0---0---0--------------------------------|
-9---8---6---6-|-9---8---6---6-|-4---6---9---6--------------------------------|
-9---9---7---7-|-9---9---7---7-|-4---6---9---7--------------------------------|
-7---9---7---7-|-7---9---7---7-|-2---4---7---7--------------------------------|
-0---7---5---5-|-0---7---5---5-|-0---0---0---5--------------------------------|
 E5  B5  A5  A5  E5  B5  A5  A5  Bm5 C#5 E5  A5
Suggest correction
Give kudos to tab author, rate the tab!
1 2 3 4 5
comments
print report bad tab
guest
You may want to rate the tab now too:
select rating
Wanna post a correction for this tab? Suggest correction