Oops, an error
Loading. Please wait.

Beautiful Thing Bass Tab

621 views 3 this week
no commentswrite comment
1 2 3 4 5
2 more votes to show rating
add to favorites
launch autoscroll
font size
0
reset
guitar tuner
Autoscroll
slow
fast
+/-
esc
set tempo
stop
Help us to improve Ultimate-Guitar.com Take our survey!
×
Author
Difficulty
----------------------------------------------------------------------------
			 Beautiful Thing - Sister Hazel
----------------------------------------------------------------------------

Tabbed By : Rob Fox
e-mail: nine_ways_to_sunday@yahoo.com

Tuning: Standard

Verse 1: (starts at 0:14) x1
G|-------------------------------------------------------------------------|
D|---------------------------------------------------2--2----2--2----------|
A|-0-4--4------------0--0------------0--0----2--2--------------------------|
E|-----------4--4------------0--0------------------------------------------|


Pre-Chorus: x1
G|-------------------------------------------------------------------------|
D|-------------------------------------------------------------------------|
A|--2--2----2--2----0--0------------2--2----2--2----0--0-------------------|
E|--------------------------0--0----------------------------0--0-----------|

G|-------------------------------------------------------------------------|
D|-------------------------------------------------------------------------|
A|--------------------------0--0----0--------------------------------------|
E|--2--2--2--2--2--2--2--2-------------------------------------------------|


Chorus: x2
G|-------------------------------------------------------------------------|
D|-------------------------------------------------------------------------|
A|----------2--2------------0--0-------------------------------------------|
E|--0--0------------2--2---------------------------------------------------|


Verse 2: x1
G|-------------------------------------------------------------------------|
D|-------------------------------------------2--2--------------------------|
A|-0-4--4------------0--0------------0--0------------2--2----2--2----------|
E|-----------4--4------------0--0------------------------------------------|

G|-------------------------------------------------------------------------|
D|---------------------------------------------------2--2----2--2----------|
A|-0-4--4------------0--0------------0--0----2--2--------------------------|
E|-----------4--4------------0--0------------------------------------------|


Next play:

Pre-Chorus x1

Chorus x3


Solo: x1
G|-------------------------------------------------------------------------|
D|-------------------------------------------2--2--------------------------|
A|-0-4--4------------0--0------------0--0------------2--2----2--2----------|
E|-----------4--4------------0--0------------------------------------------|

G|-------------------------------------------------------------------------|
D|-------------------------------------------------------------------------|
A|-0-4--4------------0--0------------0--0----2--2----2--2----2--2----------|
E|-----------4--4------------0--0------------------------------------------|


Bridge: x1
G|-------------------------------------------------------------------------|
D|-------------------------------------------------------------------------|
A|-------2----4----0---------0---------------------------------------------|
E|--2-------------------0---------0-0-0-0-0-0-0-0-0-0-0-0-0-0-0-0----------|


Next play:

Pre-Chorus x1

Chorus x4

...and your done.

| /  slide up
| \  slide down
| h  hammer-on
| p  pull-off
| ~  vibrato
| +  harmonic
| x  Mute note
============================================================================
Suggest correction
Give kudos to tab author, rate the tab!
1 2 3 4 5
comments
print report bad tab
guest
You may want to rate the tab now too:
select rating
Wanna post a correction for this tab? Suggest correction