Oops, an error
Loading. Please wait.

Beautiful Thing solo tab

2,492 views 1 this week
1 commentread comment
1 2 3 4 5
2 more votes to show rating
add to favorites
×
Save as Personal and add changes to this tab that will be seen only by you. Learn more ›
×
You can save this tab as Personal to edit and correct it or add notes. All changes will be seen only by you. Learn more »
launch autoscroll
font size
0
reset
how to read this tab
guitar tuner
edit
Autoscroll
slow
fast
+/-
esc
set tempo
stop
Difficulty
intermediate
Sister Hazel
Fortress
Beautiful Thing Solo
Tabbed by: beeblebrox677, cookerworms [gnat] yahoo.com
12/28/04

This is a simple solo.  I tabbed this out a long time ago for myself and decided to 
the world with my fifteen minutes of hard work.

For those interested in technical junk, this solo is mostly in E major and then sort of 
through he switches to using c minor pentatonic (but it's all relative so it doesn't 
matter anyway)  I really didn't put any spaces in the tab to mark out any sorts of pauses
in the solo, so you'll just have to listen carefully to the song if you want to follow
along.

That cool thing he does really fast at the end of the solo is like a B Major arpeggio
like he does it with pull offs or something.

Enjoy.  Email with questions, compliments, or hate.

e-------------------------------------------------------------|
b-------------------------------------------------------------|
g-------------------------------------------------------------|
d-------------1-2-1-------------------------------------------|
a---------2-4-------4-2h4-2-2-2h4-2-----------------0h2p0---0-|
e-0-2-4-5---------------------------5-4-5-4-2-0-2-4-------4---|

e------------------------------------------------------------------------|
b-------------------------------------9h10p9----9------------------------|
g---------------------------9-8--------------11---11-11b13r11-11p9----9v-|
d-----2-1---------6-7-6-7-9-----9-9-9------------------------------11----|
a-2-4-----4-2-4/6--------------------------------------------------------|
e------------------------------------------------------------------------|

e-------9----------------------------------------|
b-9-------12b14-14-14-14-14/17-17b19-19-19-17----|
g-11b13---------------------------------------18-|
d------------------------------------------------|
a------------------------------------------------|
e------------------------------------------------|

e----------------------------------------------------------------19----------|
b----------17-17-17-17-17p16----16-17h19p17p16-17p16----16-19b21----19b21r19-|
g-------16-------------------18----------------------18----------------------|
d-16/18----------------------------------------------------------------------|
a----------------------------------------------------------------------------|
e----------------------------------------------------------------------------|

e-19p14-------19p14-19p14-------19p14-19p14-------19p14-19p14-------19p14-|
b-------16----------------16----------------16----------------16----------|
g----------16----------------16----------------16----------------16-------|
d-------------------------------------------------------------------------|
a-------------------------------------------------------------------------|
e-------------------------------------------------------------------------|

e-16-17-19-19b21~-|
b-----------------|
g-----------------|
d-----------------|
a-----------------|
e-----------------|

            
            
Suggest correction
Creating personal tab
Creating personal tab
You can edit any tab online and save it as your Personal.

You can edit, replace or remove any tab part or add personal notes – all changes will be seen only by you.

Personal tabs can be accessed anytime from any device, even offline.
Learn more »
Give kudos to tab author, rate the tab!
1 2 3 4 5
comments
print report bad tab
1 comment total.
0 reply
Doccface 51 Jun 27, 2007 03:55 PM

Its ok up until your second last bar the 19p14 bit,

he plays

--19p0------19p0-19p0------19p0--19p0--19-16-17---19--19-19b21-
-------17p0-----------17p0-------------------------------------
---------------------------------------------------------------

There are a few other errors but mostly its fine

guest
Wanna post a correction for this tab? Suggest correction