Oops, an error
Loading. Please wait.

Out There tab

version 1
version 1

Whole song

3,573 views 1 this week
5 commentsread comments
1 2 3 4 5
x 4
add to favorites
×
Save as Personal and add changes to this tab that will be seen only by you. Learn more ›
×
You can save this tab as Personal to edit and correct it or add notes. All changes will be seen only by you. Learn more »
launch autoscroll
font size
0
reset
how to read this tab
guitar tuner
edit
Autoscroll
slow
fast
+/-
esc
set tempo
stop
Band: Sister Hazel

Song: Out There

Album: Fortress

Alright, the other guy who tabbed this song left out a bit of important stuff. As for me 
notice if there is a wrong chord or string being played. so i gotta fix it. so this 
i think is pretty accurate.

intro:
  Am          F           C        G       Am         F        C       G
    If she's out there somewhere somewhere,  I would give anything to know.
 Am          G           F        C       Dm           C               F
    Just to hold and to finally have her. Take me to sunrise to get it done.

    "I'm not sure that's how the last sentence goes though. i'm kinda bad at figuring 
lyrics sometimes."

Verses:

e-------------------------------1---------------------------------------|
b------1---------1----------3-------------------------------------------|
g----2--------0----------2----------------------------------------------|
d--3--------2---------0-------------------------------------------------|
a-----------------------------------------------------------------------|
E-----------------------------------------------------------------------|

play this tab through out the verses

when the chorus comes around again crank up the distortion and use those power chords 
the chorus, that is, if you have and electric guitar.

Bridge:

e---------------------------------------------------------------------|
b---------------------------------------------------------------------|
g---7---7-7---7-----5---5-5---5-----3---3-3---3-----2---2-2---2-------|
d---7---7-7---7-----5---5-5---5-----3---3-3---3-----2---2-2---2-------|
a---5---5-5---5-----3---3-3---3-----1---1-1---1-----0---0-0---0-------|
E---------------------------------------------------------------------|


Just repeat this bridge several times, i don't know exactly how many but go back to the 
after this bridge and that should be it!!!!!!!!!
there you go!!!!!!!

            
            
Suggest correction
Creating personal tab
Creating personal tab
You can edit any tab online and save it as your Personal.

You can edit, replace or remove any tab part or add personal notes – all changes will be seen only by you.

Personal tabs can be accessed anytime from any device, even offline.
Learn more »
comments
print report bad tab
5 comments total. Showing first comments.
0 reply
JackyB 10 Nov 19, 2004 07:00 PM

Great tab. Everything seems right. It's a beatiful song. If you haven't heard the live version, I recommend checking it out.

0 reply
jacket 16 Apr 23, 2006 11:23 AM

The live version is played a little differently in the verses. He is fingepicking it like...

e-----3-------3--------1--
b-----1-------1--------3--
g---2-------2--------0----
d-3-----3-2-----2--0------

And in the chorus he's following the same pattern with those chords that you have lined out.

Great job bro!!

0 reply
jacket 16 Apr 23, 2006 11:24 AM

Oops, I messed it up :P

e-----3-------3--------1--
b-----1-------1--------3--
g---2-------0--------0----
d-3-----3-2-----2--0------

There we go.

guest
Wanna post a correction for this tab? Suggest correction