Oops, an error
Loading. Please wait.

Bam Bam bass

928 views 42 this week
no commentswrite comment
1 2 3 4 5
x 3
add to favorites
×
Save as Personal and add changes to this tab that will be seen only by you. Learn more ›
×
You can save this tab as Personal to edit and correct it or add notes. All changes will be seen only by you. Learn more »
launch autoscroll
font size
0
reset
guitar tuner
edit
Autoscroll
slow
fast
+/-
esc
set tempo
stop
Author
Sister Nancy Bam Bam Bass Tab - Probably the chillest groove ever
Play the variations is the given order during the sections

(Variation 1)                     (Variation 2)                     (Variation 3)
G|------------3----------|      G|------------3-3--------|      G|------------3----------|
D|-----------5-5--------.|      D|-----------5-5-5------.|      D|-----------5----------.|
A|---3-3---------1-1----.|      A|---3-3-----------1----.|      A|---3-3---------1-1----.|
E|-----------------------|      E|-----------------------|      E|-----------------------|

*********************************************************************************************************

[Intro] - Break
(00:21)          (00:25)
G|-----|      G|--3-----| 
D|-----|      D|-5-5----| 
A|--3--|      A|----1---|
E|-----|      E|--------|

(00:36 - 00:56)
(Chorus 1 + Verse 1)(Variations: 1,2,1,1,1,1,1)
G|------------3---------------------3-3-----|    |------------3------------|
D|-----------5-5-------------------5-5-5----|    |-----------5-5----------.|
A|---3-3----------1-1------3-3-----------1--|    |-----3-3---------1-1----.| x5
E|------------------------------------------|    |-------------------------|

[00:56 - Break]

[01:04](Chorus 2 + Verse 2)(Variations: 1,1,1,1,2,2,2,3,2,2)
G|------------3----------|    |------------3-3------|    |------------3----------|-------------3-3-----|
D|-----------5-5--------.|    |-----------5-5-5----.|    |-----------5-----------|------------5-5-5---.|
A|---3-3----------1-1---.| x4 |---3-3-----------1--.| x3 |-----3-3--------1-1----|----3-3-----------1-.| x2
E|-----------------------|    |---------------------|    |-----------------------|---------------------|

[01:32](Chorus 3 + Verse 3)(Variations: 2,2,2,2,2,2,3,1,1,1)
G|------------3-3---------|      G|------------3-------|   G|------------3------------|
D|-----------5-5-5-------.|      D|-----------5--------|   D|-----------5-5----------.|
A|---3-3-----------1-----.| x6   A|---3-3---------1-1--|   A|-----3-3---------1-1----.| x3
E|------------------------|      E|--------------------|   E|-------------------------|

[02:02](Chorus 4 + Verse 4)(Variations: 1,1,1,1,1,1,1,1,1,1)
G|------------3----------|    
D|-----------5-5--------.|    
A|---3-3---------1-1----.| x10     
E|-----------------------|     

[02:32](Chorus 5)(Break)

[02:43](Chorus 6)(Variations: 1,2)
G|------------3---------------------3-3-------|      
D|-----------5-5-------------------5-5-5------|      
A|---3-3---------1-1-------3-3-----------1----|      
E|--------------------------------------------|     
  
[02:50](Verse 5)(Break)

[03:00](Chorus 7, fade out)(Variations: 1,2,1,1)
G|------------3-------------------3-3-------|------------3----------|
D|-----------5-5-----------------5-5-5------|-----------5----------.|
A|---3-3---------1-1-----3-3-----------1----|---3-3---------1-1----.|
E|------------------------------------------|-----------------------|

********************************************************************************************************

[Summary: For looking at it all at once]
(00:21)          (00:25)
G|-----|      G|--3-----| 
D|-----|      D|-5-5----| 
A|--3--|      A|----1---|
E|-----|      E|--------|

00:36 (Chorus 1) - Variations: 1,2,1,1,1,1,1)
00:56 (Verse 1) - Break)
01:04 (Chorus 2 + Verse 2) - Variations: 1,1,1,1,2,2,2,3,2,2)
01:32 (Chorus 3 + Verse 3) - Variations: 2,2,2,2,2,2,3,1,1,1)
02:02 (Chorus 4 + Verse 4) - Variations: 1,1,1,1,1,1,1,1,1,1)
02:32 (Chorus 5) - Break)
02:43 (Chorus 6) - Variations: 1,2)
02:50 (Verse 5) - Break)
03:00 (Chorus 7, fade out) - Variations: 1,2,1,1)

********************************************************************************************************
Notes:
(Technically Variation 2 is played very quietly during the breaks but this details out each part
when the bass is bumpin
De chorus is when Sister Nancy goes back to da bam bam)

            
            
Suggest correction
Creating personal tab
Creating personal tab
You can edit any tab online and save it as your Personal.

You can edit, replace or remove any tab part or add personal notes – all changes will be seen only by you.

Personal tabs can be accessed anytime from any device, even offline.
Learn more »
Give kudos to tab author, rate the tab!
1 2 3 4 5
comments
print report bad tab
guest
You may want to rate the tab now too:
select rating
Wanna post a correction for this tab? Suggest correction