Oops, an error
Loading. Please wait.

Moonrise Tab

97 views 15 this week
no commentswrite comment
1 2 3 4 5
3 more votes to show rating
add to favorites
launch autoscroll
font size
0
reset
how to read this tab
guitar tuner
Autoscroll
slow
fast
+/-
esc
set tempo
stop
Help us to improve Ultimate-Guitar.com Take our survey!
×
Author
Difficulty
intermediate
Tabbed by: Joshua Garcia (joshuag523@aol.com)

Tabs for the song:  by 
Please rate and let me know if you have any corrections. Thank you.


To view my guitar cover of this song, go here:
https://www.youtube.com/watch?v=ReolO5GRaNE


Tuning: Standard (E A D G B E)


[Intro]
Guitar 1:
E||-------------------|-----------------------|
B||-------------------|--------15--12~--------|
G||--5~----6/7--7/9~--|--9~----x---x----------|
D||--x-----x/x--x/x---|--x-----x---x----------|
A||--x-----6/7--7/8~--|--8~----15--12~---11~--|
E||--5~---------------|-----------------------|


E||---------------------------|-----------------------|
B||--------------------8------|--------15--12~--------|
G||--5~----6/7--7/9~-----9----|--9~----x---x----------|
D||--x-----x/x--x/x-----------|--x-----x---x----------|
A||--x-----6/7--7/8~-------8--|--8~----15--12~---11~--|
E||--5~-----------------------|-----------------------|



[Riff 1]
Guitar 1/2:
E||--------------------------------------------7~/--|
B||------------------------5---------------8--------|
G||--5--5------6/7-----9-------8-7-5----------------|
D||--x--x------x/x-----x-------------7-5-----5------|
A||--x--x--x-x-6/7-x-x-8----------------------------|
E||--5--5-------------------------------------------|


E||------------------------10--7h8p7------------------|
B||------------15-----12-------------10-8---10/12\10--|
G||--9--9------x------x-------------------9-----------|
D||--x--x------x------x-------------------------------|
A||--8--8--x-x-15-x-x-12------------------------------|
E||---------------------------------------------------|


E||----------------------------------------------7-----|
B||------------------------5------------------8-----8--|
G||--5--5------6/7-----9-----8-7-5-----5h7/9-----------|
D||--x--x------x/x-----x-----------6h7-----------------|
A||--x--x--x-x-6/7-x-x-8-------------------------------|
E||--5--5----------------------------------------------|


E||------------------------15-12-15-17-15-12-----------------------------|
B||------------15-----12---------------------15-13-12--------------------|
G||--9--9------x------x-------------------------------14-12--------------|
D||--x--x------x------x-------------------------------------14-----------|
A||--8--8--x-x-15-x-x-12---------------------------------------15-12\10--|
E||----------------------------------------------------------------------|


Guitar 1:
E||----------------------------------------7---10~/--|
B||------------------------5-------------------------|
G||--5--5------6/7-----9-------8-7-5-----------------|
D||--x--x------x/x-----x-------------7/9-----9-------|
A||--x--x--x-x-6/7-x-x-8-----------------------------|
E||--5--5--------------------------------------------|


E||------------------------10--7h8p7------------------------|
B||--8--8------15-----12-------------10-8-8-/-12-/-15-\-12--|
G||--x--x------x------x-------------------------------------|
D||--7--7--x-x-14-x-x-10------------------------------------|
A||---------------------------------------------------------|
E||---------------------------------------------------------|


E||--------------15/17--------------------------------------10------|
B||--13--13------x-/x------17---------------------------12------12--|
G||--x---x-------12/14-----x----9-8------------9h10/12--------------|
D||--x---x-----------------14-------12-10-9h10----------------------|
A||--12--12--x-x-------x-x------------------------------------------|
E||-----------------------------------------------------------------|


E||------------------------19-15-19-22-19-15-----------------------------|
B||--8--8------15-----12---------------------18-17-15--------------------|
G||--x--x------x------x-------------------------------17-16--------------|
D||--7--7--x-x-14-x-x-10------------------------------------17-----------|
A||------------------------------------------------------------19-15\14--|
E||----------------------------------------------------------------------|


Guitar 2:
E||--------------------------------------------7~/--|
B||------------------------5---------------8--------|
G||--5--5------6/7-----9-------8-7-5----------------|
D||--x--x------x/x-----x-------------7-5-----5------|
A||--x--x--x-x-6/7-x-x-8----------------------------|
E||--5--5-------------------------------------------|


E||------------------------10--7h8p7------------------|
B||------------15-----12-------------10-8---10/12\10--|
G||--9--9------x------x-------------------9-----------|
D||--x--x------x------x-------------------------------|
A||--8--8--x-x-15-x-x-12------------------------------|
E||---------------------------------------------------|


E||----------------------------------------------7-----|
B||------------------------5------------------8-----8--|
G||--5--5------6/7-----8-----8-7-5-----5h7/9-----------|
D||--x--x------x/x-----x-----------6h7-----------------|
A||--x--x--x-x-6/7-x-x-7-------------------------------|
E||--5--5----------------------------------------------|


E||------------------------15-12-15-19-15-12-----------------------------|
B||------------15-----12---------------------15-13-12--------------------|
G||--9--9------x------x-------------------------------14-12--------------|
D||--x--x------x------x-------------------------------------14-----------|
A||--8--8--x-x-15-x-x-12---------------------------------------15-12\10--|
E||----------------------------------------------------------------------|



[Riff 2]
Guitar 1:
E||-----------------------------------------------------|
B||-----------------------------------------------------|
G||--5--5------5h7----7-4--------5--5------5/7-----7/9--|
D||--x--x------x----------5------x--x------x/x-----x/x--|
A||--5--5--x-x-5------------7----5--5--x-x-5/7-x-x-7/8--|
E||-----------------------------------------------------|


E||-----------------------------------------------------|
B||-----------------------------------------------------|
G||--5--5------5h7----7-4--------5--5------5/7-----7/9--|
D||--x--x------x----------5------x--x------x/x-----x/x--|
A||--5--5--x-x-5------------7----5--5--x-x-5/7-x-x-7/8--|
E||-----------------------------------------------------|


E||------------------------------------------------------------|
B||------------------------------------------------------------|
G||--9--9------9h12----12-9----------9--9------9/10-----10/12--|
D||--x--x------x------------10-------x--x------x/x------x-/x---|
A||--8--8--x-x-8---------------12----8--8--x-x-8/10-x-x-10/12--|
E||------------------------------------------------------------|


E||---------------------------------------------------------|
B||---------------------------------------------------------|
G||--9--9------9h12----12-9----------9--9------9/10-----10--|
D||--x--x------x------------10-------x--x------x/x------x---|
A||--8--8--x-x-8---------------12----8--8--x-x-8/10-x-x-10--|
E||---------------------------------------------------------|


Guitar 2:
E||-----------------------------------------------------|
B||-----------------------------------------------------|
G||--5--5------5h7----4----------5--5------5/7-----7/9--|
D||--x--x------x--------5--------x--x------x/x-----x/x--|
A||--5--5--x-x-5----------7-3----5--5--x-x-5/7-x-x-7/8--|
E||-----------------------------------------------------|


E||-----------------------------------------------------|
B||-----------------------------------------------------|
G||--5--5------5h7----4----------5--5------5/7-----7/9--|
D||--x--x------x--------5--------x--x------x/x-----x/x--|
A||--5--5--x-x-5----------7-3----5--5--x-x-5/7-x-x-7/8--|
E||-----------------------------------------------------|


E||-----------------------------------------------------------|
B||-----------------------------------------------------------|
G||--9--9------9h12----9------------9--9------9/10-----10/12--|
D||--x--x------x---------10---------x--x------x/x------x-/x---|
A||--8--8--x-x-8------------12-8----8--8--x-x-8/10-x-x-10/12--|
E||-----------------------------------------------------------|


E||--------------------------------------------------------|
B||--------------------------------------------------------|
G||--9--9------9h12----9------------9--9------9/10-----10--|
D||--x--x------x---------10---------x--x------x/x------x---|
A||--8--8--x-x-8------------12-8----8--8--x-x-8/10-x-x-10--|
E||--------------------------------------------------------|


Guitar 3:
E||--12-------------15-------|--12-------------15----------|
B||----------------------15--|----------------------15\12--|
G||-------14---12------------|-------14---12---------------|
D||--------------------------|-----------------------------|
A||--------------------------|-----------------------------|
E||--------------------------|-----------------------------|


E||--12-------------15-------|--12-------------15----------|
B||----------------------15--|----------------------12-13--|
G||-------14---12------------|-------14---12---------------|
D||--------------------------|-----------------------------|
A||--------------------------|-----------------------------|
E||--------------------------|-----------------------------|



[Solo 1]
Guitar 1:
E||--15-12------------------------------------------------------------|
B||--------13---------------------------------------------------------|
G||-----------12------------------------------------------------------|
D||--------------14---------------------------------------------------|
A||-----------------15-12\10/14-15-17-12h14---------------------------|
E||-----------------------------------------15-12~---/15\10---10/12\--|


E||-----------------------------------------------------------------------|
B||-----------------------------------------------------------------------|
G||--------------------------------------7/9-5-7-5b--7--5b--7--5b--7-7/9--|
D||----------*7b---------5---5/7~----5-7----------------------------------|
A||----3-5---------5-3-5--------------------------------------------------|
E||--5--------------------------------------------------------------------|
    .            . . .            . .

E||-----------------------------------------------------------------------|
B||---------------7b8r7---------------8-10-10/12-8--/10--13--15---15/-17--|
G||--5b--7--5b--7-------7--7/9----7-9-------------------------------------|
D||-----------------------------------------------------------------------|
A||-----------------------------------------------------------------------|
E||-----------------------------------------------------------------------|


E||-----------------------------------------------------------------------|
B||--13-15/20--15--\13--15--11h12-----------------------------------------|
G||-------------------------------12\9----12-9-10-9-----------------------|
D||-------------------------------------------------12-10-9-9-10-9--------|
A||----------------------------------------------------------------12-10--|
E||-----------------------------------------------------------------------|


E||-----------------------------15--------------12-------|
B||-----------------------15-17----15-13-15-16------16~--|
G||--------------12-14/17--------------------------------|
D||-----10-12/14-----------------------------------------|
A||--12--------------------------------------------------|
E||------------------------------------------------------|


E||-----------------------------15----15-17-19-17-15-----|
B||--16-15-13-15-16-17-16-15-13----17----------------17--|
G||------------------------------------------------------|
D||------------------------------------------------------|
A||------------------------------------------------------|
E||------------------------------------------------------|


E||--20-17-------/22--19-18-17--18------|
B||--------20-17-------------------19~--|
G||-------------------------------------|
D||-------------------------------------|
A||-------------------------------------|
E||-------------------------------------|


Guitar 2:
E||---------------|
B||--3---------3--|
G||-------5-------|
D||---------------|
A||---------------|
E||---------------|


E||--------------------------------------------------------------|
B||--3---------3--------3-----3-------3--------3--------3-----3--|
G||-------5----------------5--------5--------5-------------5-----|
D||-----------------------------2--------3-----------------------| x4
A||--------------------------------------------------------------|
E||--------------------------------------------------------------|



[Riff 3]
Guitar 1:
E||------------------------------------------------------------|
B||------------------------------------------------------------|
G||--9--9------9h12----12-9----------5--5------5h7----7-5------|
D||--x--x------x------------10-------x--x------x----------6----|
A||--8--8--x-x-8---------------12----5--5--x-x-5------------7--|
E||------------------------------------------------------------|


E||---------------------------------------------------------------|
B||------------------------------------------------4-5-4----------|
G||--------4-5-4-----------4-7-4---4-5-4-------4-7-------7-5-4/7--|
D||------5-------5-------5-------5-------7-5-7--------------------|
A||--3-7-----------7-3-7------------------------------------------|
E||---------------------------------------------------------------|


E||------------------------------------------------------------|
B||------------------------------------------------------------|
G||--9--9------9h12----12-9----------5--5------5h7----7-5------|
D||--x--x------x------------10-------x--x------x----------6----|
A||--8--8--x-x-8---------------12----5--5--x-x-5------------7--|
E||------------------------------------------------------------|


E||----------------------------------------------------------------|
B||------------------------------------------------4-5-4-----------|
G||--------4-5-4-----------4-7-4---4-5-4-------4-7-------7-5-4/12--|
D||------5-------5-------5-------5-------7-5-7---------------------|
A||--3-7-----------7-3-7-------------------------------------------|
E||----------------------------------------------------------------|


Guitar 2:
E||------------------------------------------------------------|
B||------------------------------------------------------------|
G||--9--9------9h12----9-------------5--5------5h7----4--------|
D||--x--x------x---------10----------x--x------x--------5------|
A||--8--8--x-x-8------------12-8-----5--5--x-x-5----------7-3--|
E||------------------------------------------------------------|


E||---------------------------------------|
B||---------------------------------------|
G||--4--4------4---4----------------------|
D||--x--x------x---x---/5--5--5--3--3--3--|
A||--3--3--x-x-3---3---/x--x--x--x--x--x--|
E||--------------------/5--5--5--3--3--3--|


E||------------------------------------------------------------|
B||------------------------------------------------------------|
G||--9--9------9h12----9-------------5--5------5h7----4--------|
D||--x--x------x---------10----------x--x------x--------5------|
A||--8--8--x-x-8------------12-8-----5--5--x-x-5----------7-3--|
E||------------------------------------------------------------|


E||---------------------------------------|
B||---------------------------------------|
G||--4--4------4---4----------------------|
D||--x--x------x---x---/5--5--5--3--3--3--|
A||--3--3--x-x-3---3---/x--x--x--x--x--x--|
E||--------------------/5--5--5--3--3--3--|



[Bridge]
Guitar 1:
E||--19~--------19~--------------------|
B||--17~-------------17~----------17~--|
G||--19~---------------------19~-------|
D||------------------------------------|
A||------------------------------------|
E||------------------------------------|


E||----------------------------------------------------|
B||----------------------------------------------------|
G||--16~------17---\12---16---7---5---4---4~----b5r4~--|
D||----------------------------------------------------|
A||----------------------------------------------------|
E||----------------------------------------------------|


Guitar 2:
E||--15~--------15~--------------------|
B||--13~-------------13~----------13~--|
G||--16~---------------------16~-------|
D||------------------------------------|
A||------------------------------------|
E||------------------------------------|


E||---------------------------------------------------|
B||---------------------------------------------------|
G||--12~------14---\9---12---7---5---4---4~----b5r4~--|
D||---------------------------------------------------|
A||---------------------------------------------------|
E||---------------------------------------------------|


Guitar 1/2:
E||----------------------------------------------|
B||----------------5-----------8-----------------|
G||--4b5r4-----------------5-------5/7----(5h7)--|
D||--------7-5-7-------7-------------------------|
A||----------------------------------------------|
E||----------------------------------------------|


E||-------------------------------------------------|
B||----------------5-----------8---8--8/12--12/15~--|
G||--4b5r4------------------------------------------|
D||--------7-5-7-------7---5------------------------|
A||-------------------------------------------------|
E||-------------------------------------------------|


Guitar 1:
E||--7b8rb~----r7-5------------------------------|
B||-----------------8-6-5------------------------|
G||-----------------------7-5--------------------|
D||---------------------------7-5----------------|
A||-------------------------------8-7-5-7-8-7-5--|
E||----------------------------------------------|


E||-----------------------------------------------------|
B||----------------8/10\8~----\5-8----------------------|
G||--------------------------------\7---p5-5------------|
D||--x-x-5/7\5~------------------------------------3/6--|
A||---------------------------------------------8-------|
E||-----------------------------------------------------|
                                         .      .  .


E||---------------------------------------------------------7--|
B||--------5-8-7---7-6---6--\5----------------------------8----|
G||-------5------8-----7----------7-5\4~----------------9------|
D||--7---7-----------------------------------------7-10--------|
A||-------------------------------------------7--8-------------|
E||------------------------------------------------------------|
     .                                        .  .


E||-------------8----------------10----------12----12--|
B||--10b12rb~-----10~-----12b13-----12~------15b17-----|
G||----------------------------------------------------|
D||----------------------------------------------------|
A||----------------------------------------------------|
E||----------------------------------------------------|


E||----------12---17--12-15-12-12-----------------------------------|
B||--15b17------------------------15-12-17-12-15-16-17-16-15-13-12--|
G||-----------------------------------------------------------------|
D||-----------------------------------------------------------------|
A||-----------------------------------------------------------------|
E||-----------------------------------------------------------------|


E||------------------------------------------------------|
B||--17-17-12-15-12-13-12-------13-----------------------|
G||-----------------------14-12----14/16-15-14----14-----|
D||--------------------------------------------17----14--|
A||------------------------------------------------------|
E||------------------------------------------------------|


E||------------------------------------------------------19b20~---19b~----------------------|
B||--------------------------------20b22-20-17----------------------------------------------|
G||--------17-19--pb20r19-17-------------------19-17----------------------------------------|
D||--17/19-------------------19-17----------------------------------------14p12-------------|
A||-----------------------------------------------------------------------------\\pick-\\---|
E||------------------------------------------------------------------------------\\slide\\--|


Guitar 2:
E||-------------------|
B||-------------------|
G||-------------------|
D||--5-5-5-5-5-5-5-5--|
A||--5-5-5-5-5-5-5-5--|
E||--3-3-3-3-3-3-3-3--|
       . . . . . . .



[Solo 2]
Guitar 1:
E||---------------------------------------------------------------------------------------------|
B||---------------------------------------------------------------------------------------------|
G||--12-12-12-12-12-12-12-12-12-12-12-12-12-12-12-12-12-12-12-12-12-12-12-12-12-12-12-12-12/14--|
D||---------------------------------------------------------------------------------------------|
A||---------------------------------------------------------------------------------------------|
E||---------------------------------------------------------------------------------------------|
        .  .     .  .        .  .     .  .     .  .     .     .  .     .  .     .     .

E||------------------------------------------------------------------------------------------15b17rb~--15b~--|
B||----------------------------------------------------x-x-12/13-x-x-13h15-x-x-15/17-x-13-13-----------------|
G||--12h14-x-x-12-x-x-12h16-x-x-12-x-x-12h16-x-x-12h16-------------------------------------------------------|
D||----------------------------------------------------------------------------------------------------------|
A||----------------------------------------------------------------------------------------------------------|
E||----------------------------------------------------------------------------------------------------------|


E||--/24---20-19----19-20\------------12-15/20-15-15----15-15\--|
B||--------------20----------13p12h13----------------15---------|
G||-------------------------------------------------------------|
D||-------------------------------------------------------------|
A||-------------------------------------------------------------|
E||-------------------------------------------------------------|


E||---8----8-10-13-11h12---11--10------10-----------------------------------------|
B||-----10-------------------------13------12--10--13--pbr12--8-----8--10b12--8~--|
G||--------------------------------------------------------------9----------------|
D||-------------------------------------------------------------------------------|
A||-------------------------------------------------------------------------------|
E||-------------------------------------------------------------------------------|


E||--15b17~-----r12----------12-15-12----------12-17-12----------12-15-12--------|
B||-----------------15-13-15----------15-13-15----------15-13-15----------15-13--|
G||------------------------------------------------------------------------------|
D||------------------------------------------------------------------------------|
A||------------------------------------------------------------------------------|
E||------------------------------------------------------------------------------|


E||-----12h17p12----------12h15p12----------12h17p15----------12h15p17--------|
B||--15----------15p13h15----------15p13h15----------15p13h15----------15p13--|
G||---------------------------------------------------------------------------|
D||---------------------------------------------------------------------------|
A||---------------------------------------------------------------------------|
E||---------------------------------------------------------------------------|


E||--15-20-15-------20-24-20-15-------15-20-15-------15-19b20rb~--|
B||-----------18p17-------------18p17----------18p17--------------|
G||---------------------------------------------------------------|
D||---------------------------------------------------------------|
A||---------------------------------------------------------------|
E||---------------------------------------------------------------|


E||-----------------------15---------------------------|
B||--15b17---------------------/15----13-15----13--15--|
G||----------/14---12-\--------------------------------|
D||----------------------------------------------------|
A||----------------------------------------------------|
E||----------------------------------------------------|


E||----------------------------11-13-15-13-11--------------------------|
B||----16-15-13--------------------------------------------------------|
G||-------------15-13-12-13-15-------------------------------13h15h16--|
D||--------------------------------------------------------------------|
A||-------------------------------------------14-13-11-13-14-----------|
E||--------------------------------------------------------------------|


Guitar 2 (Left Dub):
E||--------------------------------------------------------------------------|
B||--5-------5-----5-----------------5---------------------------------------|
G||--5-------5-----5-------------4-------------------------------------------|
D||--3-------3-----3---------3/7---5---5-------5-----5---------7/9-10--------|
A||------------------------------------5-------5-----5----------------12-10--|
E||------111-----1-----1-1-------------3---333-3---3-3---3-3-----------------|
         ...     .     . .                 ...     .     . .


E||-----------------------------------------------------------------------------|
B||-----------------------------------------------------------------------------|
G||-----------------------------------------------------------------------------|
D||--7-------7-----7--------------------------7-------7-----------/12--11-10-9--|
A||--7-------7-----7---------5/7-----10-------7-------7---000-0-----------------|
E||--5---555-5---5-5---5-5-------7-8------555-5---555-5---000-0-----------------|
         ...           . .                ...     ...     ... .


E||--------------------------------------------------------------------------|
B||--5-------5-----5-----------------5---------------------------------------|
G||--5-------5-----5-------------4-------------------------------------------|
D||--3-------3-----3---------3/7---5---5-------5-----5---------7/9-10--------|
A||------------------------------------5-------5-----5----------------12-10--|
E||------111-----1-----1-1-------------3---333-3---3-3---3-3-----------------|
         ...     .     . .                 ...     .     . .


E||---------------------------------------------------------|
B||---------------------------------------5-------5-----4~--|
G||----------------------------7/9--------5-------5-----5~--|
D||--7-------7-----7-----------x/x----9---0---000-0---0-3~--|
A||--7-------7-----7---000-0---5/7----x---------------------|
E||--5---555-5---5-5---000-0-------xx-7---------------------|
         ...           ... .                  ...     .


Guitar 2 (Right Dub):
E||-----------------------------------------------------------------------|
B||--5-------5-----5------------------------------------------------------|
G||--5-------5-----5---------2/5-7-----------------------------5/7-9-7----|
D||--3-------3-----3-------------------5-------5-----5-----------------9--|
A||--------------------------------2-3-5-------5-----5--------------------|
E||------111-----1-----1-1-------------3---333-3---3-3---3-3--------------|
         ...     .     . .                 ...     .     . .


E||-------------------------------------------------------------------------------|
B||----------------------------------------------------------------/15--14-13-12--|
G||--------------------------7/9------12------------------------------------------|
D||--7-------7-----7-------------9-10----------7-------7--------------------------|
A||--7-------7-----7---------------------------7-------7---000-0------------------|
E||--5---555-5---5-5---5-5-----------------555-5---555-5---000-0------------------|
         ...           . .                 ...     ...     ... .


E||-----------------------------------------------------------------------|
B||--5-------5-----5------------------------------------------------------|
G||--5-------5-----5---------2/5-7-----------------------------5/7-9-7----|
D||--3-------3-----3-------------------5-------5-----5-----------------9--|
A||--------------------------------2-3-5-------5-----5--------------------|
E||------111-----1-----1-1-------------3---333-3---3-3---3-3--------------|
         ...     .     . .                 ...     .     . .


E||---------------------------------------------------------|
B||---------------------------------------5-------5-----4~--|
G||----------------------------7/9--------5-------5-----5~--|
D||--7-------7-----7-----------x/x----9---0---000-0---0-3~--|
A||--7-------7-----7---000-0---5/7----x---------------------|
E||--5---555-5---5-5---000-0-------xx-7---------------------|
         ...           ... .                  ...     .


Guitar 1:
E||-----|-----|
B||--4--|-----|
G||--5--|-----|
D||--3--|-----|
A||-----|-----|
E||-----|-----|


Guitar 2:
E||-----|-----|
B||-----|--4--|
G||-----|--5--|
D||-----|--3--|
A||-----|-----|
E||-----|-----|



[Riff 1]
Guitar 1:
E||----------------------------------7---10~/--|
B||------------------5-------------------------|
G||------6/7-----8-------8-7-5-----------------|
D||------x/x-----x-------------7/9-----9-------|
A||--x-x-6/7-x-x-7-----------------------------|
E||--------------------------------------------|


Guitar 2:
E||--------------------------------------7~/--|
B||------------------5---------------8--------|
G||------6/7-----8-------8-7-5----------------|
D||------x/x-----x-------------7-5-----5------|
A||--x-x-6/7-x-x-7----------------------------|
E||-------------------------------------------|


Guitar 1:
E||-----|-----|
B||-----|-----|
G||--9--|-----|
D||--x--|-----|
A||--8--|-----|
E||-----|-----|


Guitar 2:
E||-----|-----|
B||-----|-----|
G||-----|--9--|
D||-----|--x--|
A||-----|--8--|
E||-----|-----|


Guitar 1:
E||------------------10--7h8p7------------------------|
B||------15-----12-------------10-8-8-/-12-/-15-\-12--|
G||------x------x-------------------------------------|
D||--x-x-14-x-x-10------------------------------------|
A||---------------------------------------------------|
E||---------------------------------------------------|


E||--------------15/17--------------------------------------10------|
B||--13--13------x-/x------17---------------------------12------12--|
G||--x---x-------12/14-----x----9-8------------9h10/12--------------|
D||--x---x-----------------14-------12-10-9h10----------------------|
A||--12--12--x-x-------x-x------------------------------------------|
E||-----------------------------------------------------------------|


E||------------------------19-15-19-22-19-15-----------------------------|
B||--8--8------15-----12---------------------18-17-15--------------------|
G||--x--x------x------x-------------------------------17-16--------------|
D||--7--7--x-x-14-x-x-10------------------------------------17-----------|
A||------------------------------------------------------------19-15\14--|
E||----------------------------------------------------------------------|


Guitar 2:
E||------------------10--7h8p7------------------|
B||------15-----12-------------10-8---10/12\10--|
G||------x------x-------------------9-----------|
D||------x------x-------------------------------|
A||--x-x-15-x-x-12------------------------------|
E||---------------------------------------------|


E||----------------------------------------------7-----|
B||------------------------5------------------8-----8--|
G||--5--5------6/7-----9-----8-7-5-----5h7/9-----------|
D||--x--x------x/x-----x-----------6h7-----------------|
A||--x--x--x-x-6/7-x-x-8-------------------------------|
E||--5--5----------------------------------------------|


E||------------------------15-12-15-19-15-12-----------------------------|
B||------------15-----12---------------------15-13-12--------------------|
G||--9--9------x------x-------------------------------14-12--------------|
D||--x--x------x------x-------------------------------------14-----------|
A||--8--8--x-x-15-x-x-12---------------------------------------15-12\10--|
E||----------------------------------------------------------------------|



[Riff 2]
Guitar 1:
E||-----------------------------------------------------|
B||-----------------------------------------------------|
G||--5--5------5h7----7-4--------5--5------5/7-----7/9--|
D||--x--x------x----------5------x--x------x/x-----x/x--|
A||--5--5--x-x-5------------7----5--5--x-x-5/7-x-x-7/8--|
E||-----------------------------------------------------|


E||-----------------------------------------------------|
B||-----------------------------------------------------|
G||--5--5------5h7----7-4--------5--5------5/7-----7/9--|
D||--x--x------x----------5------x--x------x/x-----x/x--|
A||--5--5--x-x-5------------7----5--5--x-x-5/7-x-x-7/8--|
E||-----------------------------------------------------|


E||------------------------------------------------------------|
B||------------------------------------------------------------|
G||--9--9------9h12----12-9----------9--9------9/10-----10/12--|
D||--x--x------x------------10-------x--x------x/x------x-/x---|
A||--8--8--x-x-8---------------12----8--8--x-x-8/10-x-x-10/12--|
E||------------------------------------------------------------|


E||---------------------------------------------------------|
B||---------------------------------------------------------|
G||--9--9------9h12----12-9----------9--9------9/10-----10--|
D||--x--x------x------------10-------x--x------x/x------x---|
A||--8--8--x-x-8---------------12----8--8--x-x-8/10-x-x-10--|
E||---------------------------------------------------------|


Guitar 2:
E||-----------------------------------------------------|
B||-----------------------------------------------------|
G||--5--5------5h7----4----------5--5------5/7-----7/9--|
D||--x--x------x--------5--------x--x------x/x-----x/x--|
A||--5--5--x-x-5----------7-3----5--5--x-x-5/7-x-x-7/8--|
E||-----------------------------------------------------|


E||-----------------------------------------------------|
B||-----------------------------------------------------|
G||--5--5------5h7----4----------5--5------5/7-----7/9--|
D||--x--x------x--------5--------x--x------x/x-----x/x--|
A||--5--5--x-x-5----------7-3----5--5--x-x-5/7-x-x-7/8--|
E||-----------------------------------------------------|


E||-----------------------------------------------------------|
B||-----------------------------------------------------------|
G||--9--9------9h12----9------------9--9------9/10-----10/12--|
D||--x--x------x---------10---------x--x------x/x------x-/x---|
A||--8--8--x-x-8------------12-8----8--8--x-x-8/10-x-x-10/12--|
E||-----------------------------------------------------------|


E||--------------------------------------------------------|
B||--------------------------------------------------------|
G||--9--9------9h12----9------------9--9------9/10-----10--|
D||--x--x------x---------10---------x--x------x/x------x---|
A||--8--8--x-x-8------------12-8----8--8--x-x-8/10-x-x-10--|
E||--------------------------------------------------------|



[Interlude]
Guitar 1:
E||-----------------------------------------0~----------------0~--------------|
B||--------8~--------------8~-------------------------------------------------|
G||------5~--------------5~---------------7~----------------7~----------------|
D||----7~--------------7~--------------10~---------------10~------------------|
A||--0~--------------0~--------------8~---------------------------------------|
E||---------------------------------------------------10~---------------------|


E||-----------------------------------------0~----------------0~--------------|
B||--------8~--------------8~---------------------------------------------8~--|
G||------5~--------------5~---------------7~----------------7~----------8~----|
D||----7~--------------7~--------------10~---------------10~----------6~------| [x2]
A||--0~--------------0~--------------8~-----------------------------8~--------|
E||---------------------------------------------------10~---------------------|



[Solo 3]
Guitar 1:
E||---------------------------------------------------------------------------------------|
B||---------------------------------------------------------------------------------------|
G||--------------5h7b9rb~r---5------*5----7----/7---6-5\4-b-r-b-r-0-4-----------3h4-3h4~--|
D||--------5h7h8------------------7-----------------------------------5\2----/5-----------|
A||--5h7h8--------------------------------------------------------------------------------|
E||---------------------------------------------------------------------------------------|


E||--------------------7h10-6h7---------------------------------------12h15----------------------------------|
B||----------------5h8-----------8---------12h13p12----------12h13h15--------15-13-12--13--12\10\8/10\5--/\--|
G||--5p4-------4h7-------------------12h14----------14-12h14-------------------------------------------------|
D||------7p5h7-----------------------------------------------------------------------------------------------|
A||----------------------------------------------------------------------------------------------------------|
E||----------------------------------------------------------------------------------------------------------|


E||--12p8----------------------------------------------------------------------------------------|
B||-------12p8-----------------8-------------8---------------------------------------------------|
G||------------9p5---------5-----*7------5-----7/9---7-5-7b8r---5-7/9-9b10r-7\5-7b-b--b9-b9-b9r--|
D||----------------9p5-7-----7--------/7---7-----------------------------------------------------|
A||----------------------------------------------------------------------------------------------|
E||----------------------------------------------------------------------------------------------|


E||-----8---7-----------------------------------------------------------------|
B||-------------8\5-5----/8--7------------------------------------------------|
G||--/9---9---9----------------10-9b10r--------------12-----------------------|
D||-------------------------------------10/12---9-10----10/12--10-12br-10-----|
A||-----------------------------------------------------------------------12--|
E||---------------------------------------------------------------------------|


E||-------------------------------12----15--15/17----15-17-15----15-19-15-----|
B||-----------------13------15--------------------------------17----------17--|
G||-----------12--------12-----12----12---------------------------------------|
D||--10-12/14----14-----------------------------------------------------------|
A||---------------------------------------------------------------------------|
E||---------------------------------------------------------------------------|


E||--20-17-------/22--20-19-19--18h19-----------------------------------------|
B||--------20-17----------------------20\17-17-17-20b22r20-17---*22b---16h17--|
G||---------------------------------------------------------------------------|
D||---------------------------------------------------------------------------|
A||---------------------------------------------------------------------------|
E||---------------------------------------------------------------------------|


E||-----------------------------------15-17-15----19-15------------------------------------------------------|
B||--17-16-15-13-15-16-17-16-15-13-17----------17-------17-17-16-15-13-15-16-17-13-12-13-12------------------|
G||-----------------------------------------------------------------------------------------14-12\9----------|
D||-------------------------------------------------------------------------------------------------12-10-9--|
A||----------------------------------------------------------------------------------------------------------|
E||----------------------------------------------------------------------------------------------------------|


E||-----------------------------------------------------------------------------------|
B||-----------------------------------------------------------------------------------|
G||--12-10-9----------------------------------------------------5--7b--5--7/12~----\--|
D||----------12-10-9-10-9-7-7-9-10-9-7------9-8-7-5-------5--7------------------------|
A||------------------------------------10-7---------7-5-7-----------------------------|
E||-----------------------------------------------------------------------------------|


Guitar 2:
E||----------------------------------|---------------------------------|---------------------------|
B||---------------5---5-5---5-5-5-5--|--5---5---5-5---5-5---5---5---5--|--5---5-5---5-5---5-5-5-5--|
G||---------------5---5-5---5-5-5-5--|--5---5---5-5---5-5---5---5---5--|--5---5-5---5-5---5-5-5-5--|
D||--7-x-x-5-x-x--3---3-3---3-3-3-3--|--3---3---3-3---3-3---3---3---3--|--3---3-3---3-3---3-3-3-3--| x4
A||--7-x-x-5-x-x---------------------|---------------------------------|---------------------------|
E||--5-x-x-3-x-x---------------------|---------------------------------|---------------------------|



[Outro]
Guitar 1/2:
E||-------------------|-----------------------|
B||-------------------|--------15--12~--------|
G||--5~----6/7--7/9~--|--9~----x---x----------|
D||--x-----x/x--x/x---|--x-----x---x----------|
A||--x-----6/7--7/8~--|--8~----15--12~---11~--|
E||--5~---------------|-----------------------|


E||---------------------------|--------------------------|
B||--------------------8------|--8~----15---12~----------|
G||--5~----6/7--7/9~-----9----|--9~----x----x------------|
D||--x-----x/x--x/x-----------|--x-----x----x------------|
A||--x-----6/7--7/8~-------8--|--8~----15---12~-----11~--|
E||--5~-----------------------|--------------------------|


E||--7~--------7~--5h7p5~------5~--------------------------------------------------5~--|
B||--8~--------8~----------8~------8~--------8~--7~------7~--8~--------------------8~--|
G||--5~--------5~----------------------------5~--5~------5~--5~----7--7--7~--------5~--|
D||--x---------------------------------------------------------------------------------|
A||--0~--------------------------------------------------------------------------------|
E||------------------------------------------------------------------------------------|





*****************************
-Tablature Legend-

 h   hammer-on
 p   pull-off
 b   bend
 pb  pre-bend
 r   release bend
 ~   hold / vibrato
 .   palm mute
 /   slide up
 \   slide down
 *   pinch harmonic
 '   natural harmonic
 x   mute note
 T   tap

*****************************
Suggest correction
Give kudos to tab author, rate the tab!
1 2 3 4 5
comments
print report bad tab
guest
You may want to rate the tab now too:
select rating
Wanna post a correction for this tab? Suggest correction