Oops, an error
Loading. Please wait.

Destinasi Cinta Tab

2,121 views 3 this week
no commentswrite comment
1 2 3 4 5
3 more votes to show rating
add to favorites
launch autoscroll
font size
0
reset
how to read this tab
guitar tuner
Autoscroll
slow
fast
+/-
esc
set tempo
stop
Help us to improve Ultimate-Guitar.com Take our survey!
×
Author
Difficulty
novice
 Tabbed :aji
 Email  :aji_gtr@yahoo.com.my

 /   slide
 x   rake
 <<  fade out
 (d) distortion
 (c) clean

  (d)
E|---------------------------------------------------------------|
B|.-------------------------------------------------------------.|
G|---------------------------------------------------------------|
D|--4-----4-----4/6----------------------------------------------|
A|.-2-22222-22222/4-4-----------4-6-----6-----6/9-2-----------2-.|
E|------------------2-22222-22222-4-44444-44444/7-0-00000-00000--|
  (c)
E|-------2---------2----------4----------0---------|
B|-----4---------2----------4----------0-----------|
G|---4---------3----------4----------1--------1----|
D|-4------------------------------------------2----|
A|-2---------4----------6----------2----------2----|
E|-----------2----------4----------0----------0----|
  (d)
E|---------------------------------------------------------------|
B|.-------------------------------------------------------------.|
G|---------------------------------------------------------------|
D|--4-----------4/6----------------------------------------------|
A|.-2-22222-22222/4-4-----------4-6-----------6/9-2-----------2-.|
E|------------------2-22222-22222-4-44444-44444/7-0-00000-00000--|
  (C)
E|-------4----------2----------0-------------------|
B|-------4----------2----------0--------4--------4-|
G|-----4----------3----------1----------4--------4-|
D|------------------------------------4--------4---|
A|---6----------4----------2--------2--------1-----|
E|-4----------2----------0-------------------------|

E|-------4----------2----------0----------2----2------|
B|-------4----------2----------0----------4----2------|
G|-----4----------3----------1----------4------3------|
D|------------------------------------4--------4------|
A|---6----------4----------2--------2----------4------|
E|-4----------2----------0----------------------------|

                 MENUJU KE DESTINASI..
   (d)
E|------------|--4-----------------------------|
B|------------|.-4-----------------------4----.|
G|-XX-3-------|--4-----------------------4-3---|
D|-XX-4-------|--6-----------------------4-4---|
A|-XX-4-------|.-6-----------------------2-4--.|
E|-XX-2-------|--4-------------------------2---|

E|----------------------------------------------------------------|
B|-4----------------------4---------------------------------------|
G|-4---4------4-------4---4-3-4---4-------4-------4---4-3---------|
D|-4-4---4--4---4---4---4-6-4-4-4---4---4---4---4---4-6-4-9-9-6-6-|
A|-2------2-------2-------6-4-2-------2-------2-------6-4-7-6-4-4-|
E|------------------------4-2-------------------------4-2---------|

(c)<<<<<<<<<<<<<<<<<<<<<<<<<<<<<<<
E|---------------------------------------------|
B|---------------------------------------------|
G|---------------------------------------------|
D|-4-X-X-X-X-X-X-X-X-X-X-X-X-X-X-X-------------|
A|-2-X-X-X-X-X-X-X-X-X-X-X-X-X-X-X-------------|
E|---------------------------------------------|
  (d)
E|-----------------------------------|--------|
B|.--------------------------------.-|--------|
G|-----------------------------------|-----4--|
D|--4--4--4/6------------------------|-4-6----|
A|.-2--2--2/4-4--4--6--6--6/9-2--2-.-|--------|
E|------------2--2--4--4--4/7-0--0---|--------|

E|-------4----------2----------0--------------------|
B|-------4----------2----------0--------------------|
G|-----4----------3----------1----------------------|
D|-----------------------------------4-4------------|
A|---6----------4----------2---------2-1------------|
E|-4----------2----------0--------------------------|

E|-------4----------2----------0----------2----2------|
B|-------4----------2----------0----------4----2------|
G|-----4----------3----------1----------4------3------|
D|------------------------------------4--------4------|
A|---6----------4----------2--------2----------4------|
E|-4----------2----------0----------------------------|

E|------------|--4-----------------------------|
B|------------|.-4-----------------------4----.|
G|-XX-3-------|--4-----------------------4-3---|
D|-XX-4-------|--6-----------------------4-4---|
A|-XX-4-------|.-6-----------------------2-4--.|
E|-XX-2-------|--4-------------------------2---|

E|----------------------------------------------------------------|
B|-4----------------------4---------------------------------------|
G|-4---4------4-------4---4-3-4---4-------4-------4---4-3---------|
D|-4-4---4--4---4---4---4-6-4-4-4---4---4---4---4---4-6-4-9-9-6-6-|
A|-2------2-------2-------6-4-2-------2-------2-------6-4-7-6-4-4-|
E|------------------------4-2-------------------------4-2---------|
  (c)
E|-------4----------2----------4----------2-------2------------------------|
B|-----4----------4----------4----------4-------2--------------------------|
G|---4----------3----------4----------4-------3----------------------------|
D|-6----------4----------6----------4-------4------------------------------|
A|-------------------------------------------------------------------------|
E|-------------------------------------------------------------------------|
                        (d)
E|-------4----------2-----------------------------------------------------|
B|-----4----------4-------------------------------------------------------|
G|---4----------3---------------------------------------------------------|
D|-6----------4----------9-9-9-9-9-9-9-9-6-6-6-6--------------------------|
A|-----------------------7-7-7-7-6-6-6-6-4-4-4-4-2-1------4--4------------|
E|---------------------------------------------------4-2--2--2------------|
          KINI   MENUJU..
E|----------|---------------------|
B|----------|.------------------.-|
G|----------|---------------------|
D|----------|--------------6--4---|
A|-4-----4--|.-6-6---------6--4-.-|
E|-2-----2--|--4-4---------4--2---|

E|----------------------------------------------------------------|
B|-4----------------------4---------------------------------------|
G|-4---4------4-------4---4-3-4---4-------4-------4---4-3---------|
D|-4-4---4--4---4---4---4-6-4-4-4---4---4---4---4---4-6-4-9-9-6-6-|
A|-2------2-------2-------6-4-2-------2-------2-------6-4-7-6-4-4-|
E|------------------------4-2-------------------------4-2---------|

E|----------------------------------------------------------------|
B|-4----------------------4---------------------------------------|
G|-4---4------4-------4---4-3-4---4-------4-------4---4-3---------|
D|-4-4---4--4---4---4---4-6-4-4-4---4---4---4---4---4-6-4-9-9-6-6-|
A|-2------2-------2-------6-4-2-------2-------2-------6-4-7-6-4-4-|
E|------------------------4-2-------------------------4-2---------|

(c)<<<<<<<<<<<<<<<<<<<<<
E|-------------------------|
B|-------------------------|
G|-------------------------|
D|-4-X-X-X-X-X-------------|
A|-2-X-X-X-X-X-------------|
E|-------------------------|
Suggest correction
Give kudos to tab author, rate the tab!
1 2 3 4 5
comments
print report bad tab
guest
You may want to rate the tab now too:
select rating
Wanna post a correction for this tab? Suggest correction