Oops, an error
Loading. Please wait.

Rehab Tab

19,687 views 3 this week
1 commentread comment
1 2 3 4 5
x 4
add to favorites
launch autoscroll
font size
0
reset
how to read this tab
guitar tuner
Autoscroll
slow
fast
+/-
esc
set tempo
stop
Help us to improve Ultimate-Guitar.com Take our survey!
×
Difficulty
intermediate
Title: Bartender (Sitting at a Bar)
Artist: Rehab

Instrument: Guitar

Tabbed by: Gui Barroso (usmc_barroso@yahoo.com)
This is my first tab so let me know what you think.

Tuning: Standard (E A D G B E)

I figured this one out by listening to the Acoustic version of the song. You don't need 
capo for this song.

 Eb   Ab   Bb   Db
|6|  |4|  |6|  |4|
|8|  |4|  |6|  |6|
|8|  |5|  |7|  |6|
|8|  |6|  |8|  |6|
|6|  |6|  |8|  |4|
|x|  |4|  |6|  |x|

Intro
|-------------------------------------------4-4-4-4-4-4---6-6-----6--||
|----------4-4-4-4--------4-4-4-4-4---------4-4-6-4-6-4---6-6-----6--||
|----------5-3-5-3-5/7--5-3-5-3-5-3------3--5-5-5-5-5-5---7-7-8p7-7--||
|-------5------------------------------5----6-6---6---6---8-8-6---8--||
|----6--------------------------------------6-6---6---6---8-8-8---8--||
|-------------------------------------------4-4---4---4---6-6-----6--||


Verse

Bartender, I really did it this time. Broke my parole to have a good time
|------------------------------6-------------------------------------6----||
|-----------------------------8-------------------------------------6-----||
|----------------------------8-------------------------------------7------||
|-------------------8-------8-------------------------------------8-------||
|------------6-------------6-----------------------------8-------8--------||
|----------------------------------------------6----------------6---------||


When I got home it was 6 a.m.       The Door was locked so I kicked it in
|---------------4--------------------------------------6-----------------||
|--------------4--------------------------------------6------------------||
|-------------5--------------------------------------7-------------------||
|------------6--------------------------------------8--------------------||
|------6----6--------------------------------8-----8---------------------||
|----4-----4----------------------------6---------6----------------------||


She was trippin' on the bills
I think she was high on some pills
She threw my shit out into the yard
Then she called me a bum and slapped me real hard
And in my drunkin' stooper
I did what I should of never done
Now I'm sittin' here talking to you

(Strum)
(Ab)             (Bb)
Drunk and on the run


Chorus
(Listen to song for strumming pattern)

                Eb
I'm sittin' at a bar on the inside
               Bb
Waitin' for my ride on the outside
             Ab
She broke my heart in the trailer park
     Db
So I jacked the keys to her fuckin' car
    Bb
And crashed that piece of shit and then stepped away
Suggest correction
comments
print report bad tab
1 comment total.
0 reply
The Other Sid3 51 Mar 25, 2008 10:32 PM

You did a pretty good job and it sounds good but it isnt completely right. Maye you acoustic version is different but to me the chords arnt quite right for the chorus but thats just my opinion

guest
You may want to rate the tab now too:
select rating
Wanna post a correction for this tab? Suggest correction