Oops, an error
Loading. Please wait.

Today Somehow Tab

version 1
version 1

Intro

Whole song

350 views 1 this week
no commentswrite comment
1 2 3 4 5
excellent!
x 1
add to favorites
launch autoscroll
font size
0
reset
how to read this tab
guitar tuner
Tab Pro tools
  • play this tab
  • loop segment
  • change instrument
  • show fretboard
  • metronome
Autoscroll
slow
fast
+/-
esc
set tempo
stop
Contributor
Difficulty
advanced
Tuning: Standard

Intro/verse:

e|----------------------------------------------|
B|-6-6-6-6-6-6-6-6-6-6-6-6-6-6-6-6-6-6-6-6-6-6-6|
G|-7-7-7-7-7-7-7-7-7-7-7-7-7-7-7-7-7-7-7-7-7-7-7|
D|-x-x-x-x-x-x-x-x-x-x-x-x-x-x-x-x-x-x-x-x-x-x-x|
A|-5-5-5-5-5-5-5-5-5-5-5-5-5-5-5-5-5-5-5-5-5-5-5|
E|----------------------------------------------|

E|-------------------|-----------------------------------|
B|-6-6-6-6-6-6-6-6-6-|-6-6-6-6-6-6-6-6-6-6-6-6-6-6-6-6-6-|
G|-7-7-7-7-7-7-7-7-7-|-7-7-7-7-7-7-7-7-7-7-7-7-7-7-7-7-7-|
D|-x-x-x-x-x-x-x-x-x-|-x-x-x-x-x-x-x-x-x-x-x-x-x-x-x-x-x-| x2
A|-x-x-x-x-x-x-x-x-x-|-5-5-5-5-5-5-5-5-5-5-5-5-5-5-5-5-5-|
E|-6-6-6-6-6-6-6-6-6-|-----------------------------------|

E|-3-3-3-3-3-3-3-3-3-|-5-5-5-5-5-5-5-5-5-|
B|-3-3-3-3-3-3-3-3-3-|-5-5-5-5-5-5-5-5-5-|
G|-4-4-4-4-4-4-4-4-4-|-6-6-6-6-7-7-6-6-6-|
D|-5-5-5-5-5-5-5-5-5-|-7-7-7-7-5-5-7-7-7-| x2
A|-5-5-5-5-5-5-5-5-5-|-7-7-7-7-7-7-7-7-7-|
E|-3-3-3-3-3-3-3-3-3-|-5-5-5-5-5-5-5-5-5-|


CHORUS LEAD GUITAR:

(This is doubled with a second guitar line playing an octave higher, it is not an 
octave/pitch shift effect)

How can I smile at you when I know you're to blame?

E|-----1-0---------------1---0---------------|
B|---------3-1-----------------3-2-----------|
G|-2-3--3------3-2-3-0-2---2-------2-0-2-----|
D|-------------------------------------------|
A|-------------------------------------------|
E|-------------------------------------------|

I've never worked so hard at something just to fail.

E|-----1-0---------------1---0------0--------|
B|---------3-1-----------------3-10---10-8---|
G|-2-3--3------3-2-3-0-2---2---------------7-|
D|-------------------------------------------|
A|-------------------------------------------|
E|-------------------------------------------|

With my feet on the ground and my head in a cloud and I know that something's got to change

E|-----1-0---------------1---0---------------|
B|---------3-1-----------------3-2-----------|
G|-2-3--3------3-2-3-0-2---2-------2-0-2-----|
D|-------------------------------------------|
A|-------------------------------------------|
E|-------------------------------------------|

today, somehow. So I give to you what I can't keep…

E|-----1-0---------------1---0-----------5-----|
B|---------3-1-----------------3-3b5b3---------|
G|-2-3--3------3-2-3-0-2---2-----------2-------|
D|---------------------------------------------|
A|---------------------------------------------|
E|---------------------------------------------|


GUITAR BREAK:

E|---------------------------|
B|-x-x-6-x-x-6-x-x-6---------|
G|-x-x-7-x-x-7-x-x-7---------|
D|-x-x-x-x-x-x-x-x-x--6------| x2
A|-x-x-5-x-x-5-x-x-5----7-8--|
E|---------------------------|

SOLO:

(This is also doubled with a second guitar line playing an octave higher, it is not an 
octave/pitch shift effect.)

E|---------------------------------------------|
B|---------------------------------------------|
G|-7-7-7-7-------------------------------------|
D|---------10-10-10-10-------------------------|
A|---------------------10-10-10-10-8-8-8-7-8-1-|
E|---------------------------------------------|

E|------------------------------------------------------------------------|
B|------------------------------------------------------------------------|
G|-7-7-7-7----------------------------------------------------------------|
D|---------10-10-10-10----------------------------------------------------|
A|---------------------10-10-10-10-8-8-8-10b11b10-8-5-3h5-3----3----------|
E|----------------------------------------------------------4-5---5-3-5-3-|

OUTRO:

(The lead guitar on the outro is playing unison bends)

E|--------------------------------------------------|
B|--10----10----10----10----10----10----10----10----|
G|--12b14-12b14-12b14-12b14-12b14-12b13-12b13-12----|
D|--------------------------------------------------|
A|--------------------------------------------------|
E|--------------------------------------------------|
comments
We did not receive enough feedback on this tab! Please rate:
print report bad tab
1 2 3 4 5
I want to post or [tab]
guest
You may want to rate the tab now too:
select rating
Please do not post tabs as comments. Select "correction" instead!