Oops, an error
Loading. Please wait.

Dont Forget Your Roots Bass

2,028 views 6 this week
no commentswrite comment
1 2 3 4 5
2 more votes to show rating
add to favorites
launch autoscroll
font size
0
reset
guitar tuner
×
Best way to learn
"Dont Forget Your Roots"
Autoscroll
slow
fast
+/-
esc
set tempo
stop
Author
Difficulty
                        "Dont forget your roots"
                                Six60
                               Bass Tab
   Intro
E|-------------------------------------------------------|
A|---------------------3---------------5-3-0-0-0-3-5/7---|  X2
D|3-3-3-3-3-3-3-3-3-3------2-2-2-2-2-2-------------------|
G|--------------------5----------------------------------|

E|--------------------------------------|
A|------3-3------------5-3-0-0-0-3-5/7--| X1
D|3--3-2----2-2-2-2-2-2-----------------|
G|--------------------------------------|

E|-----------0-3-3-X-3-5-5-3-5------|
A|-------3-3-------------------3-5--| X1
D|3--3-2----------------------------|
G|----------------------------------|

           VERSE

E|------------0-3-3-3--3/10/3-3-5-5--3-5-----|
A|--------3-3----------------------------3-5-|
D|3---3-2------------------------------------|
G|-------------------------------------------|

E|------------0-3-3-X-3-5-5-3-5----|
A|--------3-3------------------3-5-|
D|3---3-2--------------------------|
G|---------------------------------|

                            CHORUS
E|---------------3-3-3-3-3-3-5-3----------------3-3-3-3--3-5-------|
A|--------3-3--3--5-5-5------------------3-3--3--5-5-5------3-5----|
D|3-3-3-3----5-------------------3-3-3-3----5------------------3-5-|
G|-5-5-5--------------------------5-5-5----------------------------|

                  PRE-CHORUS/GUITAR SOLO

E|-------3--5--3-----3-3-3-3-3-3-3-3-3-5-3-3-5-3-5-|
A|----3------------3-------------------------------|
D|3--------------3---------------------------------|
G|-------------------------------------------------|

        OUTRO

E|-------3--5--3-------5------|
A|---3--------------3---------|
D|3--------------3------------|
G|----------------------------|


I think this is all right any mistakes please e-mail me about it, i've seen alot of 
demand for this song do i hope you enjoy it.

The song goes like this.........

INTRO
VERSE x4
CHORUS x4
VERSE x4
CHORUS X4
PRE-CHORUS/SOLO X2
CHORUS X4
VERSE X2
OUTRO X2

KEY
X- MUTE SLAP.

THATS'S IT ENJOY :)
Suggest correction
Give kudos to tab author, rate the tab!
1 2 3 4 5
comments
print report bad tab
guest
You may want to rate the tab now too:
select rating
Wanna post a correction for this tab? Suggest correction