Oops, an error
Loading. Please wait.

Dont Forget Your Roots Bass Tab

version 0
version 0

Whole song

Interactive

5,267 views 18 this week
no commentswrite comment
1 2 3 4 5
accurate
x 4
add to favorites
launch autoscroll
font size
0
reset
guitar tuner
Autoscroll
slow
fast
+/-
esc
set tempo
stop
Help us to improve Ultimate-Guitar.com Take our survey!
×
Author
Difficulty
novice
Six60 Don't Forget Your Roots



Intro

G|--------------------5----------------------------------|
D|3-3-3-3-3-3-3-3-3-3------2-2-2-2-2-2-------------------|
A|---------------------3---------------5-3-0-0-0-3-5/7---|
E|-------------------------------------------------------| X2


G|--------------------------------------|
D|3--3-2----2-2-2-2-2-2-----------------|
A|------3-3------------5-3-0-0-0-3-5/7--| X1
E|--------------------------------------|


G|----------------------------------|
D|3--3-2----------------------------|
A|-------3-3-------------------3-5--| X1
E|-----------0-3-3-X-3-5-5-3-5------|



           VERSE


G|-------------------------------------------|
D|3---3-2------------------------------------|
A|--------3-3----------------------------3-5-|
E|------------0-3-3-3--3/10/3-3-5-5--3-5-----|


G|---------------------------------|
D|3---3-2--------------------------|
A|--------3-3------------------3-5-|
E|------------0-3-3-X-3-5-5-3-5----|

 CHORUS


G|-5-5-5--------------------------5-5-5----------------------------|
D|3-3-3-3----5-------------------3-3-3-3----5------------------3-5-|
A|--------3-3--3--5-5-5------------------3-3--3--5-5-5------3-5----|
E|---------------3-3-3-3-3-3-5-3----------------3-3-3-3--3-5-------|


                  PRE-CHORUS/GUITAR SOLO



G|-------------------------------------------------|
D|3--------------3---------------------------------|
A|----3------------3-------------------------------|
E|-------3--5--3-----3-3-3-3-3-3-3-3-3-5-3-3-5-3-5-|


        OUTRO


G|----------------------------|
D|3--------------3------------|
A|---3--------------3---------|
E|-------3--5--3-------5------|


Yes, this was tabbed by tomdapom11 but he tabbed it as EADG not GDAE so I flipped it for 
ease of reading.

Email me if there are any mistakes at: snake_pink_son@hotmail.com
Suggest correction
comments
print report bad tab
guest
You may want to rate the tab now too:
select rating
Please do not post tabs as comments. Select "correction" instead!