Oops, an error
Loading. Please wait.

Finest Wines Tab

7,074 views 1 this week
no commentswrite comment
1 2 3 4 5
2 more votes to show rating
add to favorites
launch autoscroll
font size
0
reset
how to read this tab
guitar tuner
Autoscroll
slow
fast
+/-
esc
set tempo
stop
Help us to improve Ultimate-Guitar.com Take our survey!
×
Author
Difficulty
novice
-----------------------------------------------------------------------------
                            Finest wines - Six60
-----------------------------------------------------------------------------

Tabbed by: Vinni
Email: Vinnie4skinnie@hotmail.com

Tuning:Standard
************************************

| /   slide up
| \   slide down
| h   hammer-on
| p   pull-off
| ~   vibrato
| +   harmonic
| x   Mute note
| b   Bend
| pb  Pre-bend
| br  Bend release
| pbr Pre-bend release
| brb Bend release bend

************************************

(on the mute strum up and down once)

Chords needed fm C# G# Bbm D#

Intro
    Fm   Fm           C#    C#       G#    G#       G#    G#
E--x---8--x--8--|--x--4--x--4--|--x--4--x--4--|--x--4--x--4--|
B--x---9--x--9--|--x--6--x--6--|--x--4--x--4--|--x--4--x--4--|
G--x--10--x-10--|--x--6--x--6--|--x--5--x--5--|--x--5--x--5--| Repeat twice
D--x--10--x--8--|--x--6--x--6--|--x--6--x--6--|--x--6--x--6--|
A--x---8--x--8--|--x--4--x--4--|--x--6--x--6--|--x--6--x--6--|
E--x---8--x--8--|--x--4--x--4--|--x--4--x--4--|--x--4--x--4--|

   Know that we've got      Only a little time
E--x---8--x--8--|--x--4--x--4--|--x--4--x--4--|--x--4--x--4--|
B--x---9--x--9--|--x--6--x--6--|--x--4--x--4--|--x--4--x--4--|
G--x--10--x-10--|--x--6--x--6--|--x--5--x--5--|--x--5--x--5--|
D--x--10--x--8--|--x--6--x--6--|--x--6--x--6--|--x--6--x--6--|
A--x---8--x--8--|--x--4--x--4--|--x--6--x--6--|--x--6--x--6--|
E--x---8--x--8--|--x--4--x--4--|--x--4--x--4--|--x--4--x--4--|

   So like it or not        We Gonna Be drinking wine
E--x---8--x--8--|--x--4--x--4--|--x--4--x--4--|--x--4--x--4--|
B--x---9--x--9--|--x--6--x--6--|--x--4--x--4--|--x--4--x--4--|
G--x--10--x-10--|--x--6--x--6--|--x--5--x--5--|--x--5--x--5--| 
D--x--10--x--8--|--x--6--x--6--|--x--6--x--6--|--x--6--x--6--|
A--x---8--x--8--|--x--4--x--4--|--x--6--x--6--|--x--6--x--6--|
E--x---8--x--8--|--x--4--x--4--|--x--4--x--4--|--x--4--x--4--|
 
  No need to stop          Until we see the sunshine
E--x---6--x--6--|--x--4--x--4--|--x--4--x--4--|--x--4--x--4--|
B--x---6--x--6--|--x--6--x--6--|--x--4--x--4--|--x--4--x--4--|
G--x---6--x--6--|--x--6--x--6--|--x--5--x--5--|--x--5--x--5--| 
D--x---8--x--8--|--x--6--x--6--|--x--6--x--6--|--x--6--x--6--|
A--x---8--x--8--|--x--4--x--4--|--x--6--x--6--|--x--6--x--6--|
E--x---6--x--6--|--x--4--x--4--|--x--4--x--4--|--x--4--x--4--|

   Start at the top         until we ease our worried minds
E--x---6--x--6--|--x--4--x--4--|--x--4--x--4--|--x--4--x--4--|
B--x---6--x--6--|--x--6--x--6--|--x--4--x--4--|--x--4--x--4--|
G--x---6--x--6--|--x--6--x--6--|--x--5--x--5--|--x--5--x--5--| 
D--x---8--x--8--|--x--6--x--6--|--x--6--x--6--|--x--6--x--6--|
A--x---8--x--8--|--x--4--x--4--|--x--6--x--6--|--x--6--x--6--|
E--x---6--x--6--|--x--4--x--4--|--x--4--x--4--|--x--4--x--4--|
      Mhmmmm.....
E--x--4--x--4--|--x--4--x--|
B--x--4--x--4--|--x--4--x--|
G--x--5--x--5--|--x--5--x--|
D--x--5--x--5--|--x--5--x--|
A--x--6--x--6--|--x--6--x--|
E--x--4--x--4--|--x--4--x--|

   Know that i'm lost with you To think of the cost of what you do   
E--x---8--x--8--|--x--4--x--4--|--x--6--x--6--|--x--4--x--4--|
B--x---9--x--9--|--x--6--x--6--|--x--6--x--6--|--x--4--x--4--|
G--x--10--x-10--|--x--6--x--6--|--x--6--x--6--|--x--5--x--5--|
D--x--10--x--8--|--x--6--x--6--|--x--8--x--8--|--x--5--x--5--|
A--x---8--x--8--|--x--4--x--4--|--x--8--x--8--|--x--6--x--6--|
E--x---8--x--8--|--x--4--x--4--|--x--6--x--6--|--x--4--x--4--|

   To me you really mean something running away would fix nothing 
E--x---8--x--8--|--x--4--x--4--|--x--6--x--6--|--x--4--x--4--|
B--x---9--x--9--|--x--6--x--6--|--x--6--x--6--|--x--4--x--4--|
G--x--10--x-10--|--x--6--x--6--|--x--6--x--6--|--x--5--x--5--|
D--x--10--x--8--|--x--6--x--6--|--x--8--x--8--|--x--5--x--5--|
A--x---8--x--8--|--x--4--x--4--|--x--8--x--8--|--x--6--x--6--|
E--x---8--x--8--|--x--4--x--4--|--x--6--x--6--|--x--4--x--4--|

   I'm begging you please reconsider with you her life is much better
E--x---8--x--8--|--x--4--x--4--|--x--6--x--6--|--x--4--x--4--|
B--x---9--x--9--|--x--6--x--6--|--x--6--x--6--|--x--4--x--4--|
G--x--10--x-10--|--x--6--x--6--|--x--6--x--6--|--x--5--x--5--|
D--x--10--x--8--|--x--6--x--6--|--x--8--x--8--|--x--5--x--5--|
A--x---8--x--8--|--x--4--x--4--|--x--8--x--8--|--x--6--x--6--|
E--x---8--x--8--|--x--4--x--4--|--x--6--x--6--|--x--4--x--4--|

   Know that i'll wait until i'm old and grey just to see your face again
E--x---8--x--8--|--x--6--x--6--|--x--4--x--4--|--x--4--x--4--|
B--x---9--x--9--|--x--8--x--8--|--x--6--x--6--|--x--4--x--4--|
G--x--10--x-10--|--x--8--x--8--|--x--6--x--6--|--x--5--x--5--| repeat twice
D--x--10--x--8--|--x--8--x--8--|--x--6--x--6--|--x--5--x--5--|
A--x---8--x--8--|--x--6--x--6--|--x--4--x--4--|--x--6--x--6--|
E--x---8--x--8--|--x--6--x--6--|--x--4--x--4--|--x--4--x--4--|

Rest of the song is basically the same Structure 

Six60 Ftw                                                
Suggest correction
Give kudos to tab author, rate the tab!
1 2 3 4 5
comments
print report bad tab
guest
You may want to rate the tab now too:
select rating
Wanna post a correction for this tab? Suggest correction