Oops, an error
Loading. Please wait.

Lost tab

version 3
version 3

Whole song

  • This is my first attempt an writing a tab so hopef... Show more
by Six60
61 views 1 this week
1 commentread comment
1 2 3 4 5
2 more votes to show rating
add to favorites
×
Save as Personal and add changes to this tab that will be seen only by you. Learn more ›
×
You can save this tab as Personal to edit and correct it or add notes. All changes will be seen only by you. Learn more »
launch autoscroll
font size
0
reset
how to read this tab
guitar tuner
edit
Autoscroll
slow
fast
+/-
esc
set tempo
stop
Author
Difficulty
About this tab version
This is my first attempt an writing a tab so hopefully there arent too many mistakes in how i published it. For the second solo i didnt know the chords for the rhythm guitar. Cheers. Was this info helpful? Yes No
this tab is for 'Lost' by six60


[Intro + first half of verse] Played clean on neck pick up with a bit of reverb

x5
e|-------------------------------------------------------------------------------------------|
B|----------1---------1------1----------1-----------------------3--/--(1)-----1-----------1--|
G|----------0---------0------0----------0----------------0------0-------------0-----------0--|
D|-2------2-----2---2---2---2--2------2-----2---2---2--------4--4--/--(2)---2----2---2-------|
A|---0-----------0--------2------3------------3---3------3/5-----------0-----------0-----0---|
E|-------------------------------------------------------------------------------------------|
                  who am I today................caught beneath the shadows



[Second half of Verse] Also on neck pick up with a little reverb

e|----------------------------------------------------------------------------------------------------------|
B|---------1---------1------1---------1-------------1-----1----/(3)----3----------3--/-(1)-----1----------1-|
G|---------0---------0------0---------0-------------0-----0----/(0)----0----------0------------0----------0-|
D|-2-----2-----2---2---2---2--2-----2-----2---2---2-----2------/(4)--4---4---4-------/-(2)---2----2---2-----|
A|---0----------0--------2------3-----------3---3-----------3--/--5--------5----5-------0-----------0----0--|
E|----------------------------------------------------------------------------------------------------------|

e|----------------------------------------------------------------------------------------------------------|
B|---------1---------1------1---------1-------------1-----1----/(3)----3----------3--/-(1)-----1----------1-|
G|---------0---------0------0---------0-------------0-----0----/(0)----0----------0------------0----------0-|
D|-2-----2-----2---2---2---2--2-----2-----2---2---2-----2------/(4)--4---4---4-------/-(2)---2----2---2-----|
A|---0----------0--------2------3-----------3---3-----------3--/--5--------5----5-------0-----------0----0--|
E|----------------------------------------------------------------------------------------------------------|


e|------3--3---3--3----|
B|------3--3---3--3----|
G|------0--0---0--0----|
D|------0--0---0--0----|
A|----2----------------|
E|--3--------3---------|
            cos I'm not..... 


[Chorus] again clean with a little reverb

listen to the song for the strumming pattern

x2    F                    C                     G                     G
e|------1----1---------------0----0------------------3----3---------------3----3-----------|
B|------1----1---------------1----1------------------3----3---------------3----3-----------|
G|------2----2---------------0----0------------------0----0---------------0----0-----------|
D|------3----3------------2-------2------------------0----0---------------0----0-----------|
A|----3------3---------3----------3---------------2-------2------------2-------2-----------|
E|-1---------1---------------------------------3----------3---------3----------3-----------|
   lost.......I just want you..........to find....me.......



[solos 1 and 2]

The rhythm guitar continues playing only the first half of the verse tab

The lead guitar for this solo has some light distortion and is played on the bridge 
pick up with a little more reverb than usual.

e|-----------------------------3----------2h3p2---------------10------------------------10-----------------|
B|--3/5~----3h5p3p0----0--1-1h3----3/5~----------3/8~--10b-12--------8h10~---10-8-10b12-----10b12br10p8----|
G|--------------------------------------------------------------9------------------------------------------|
D|---------------------------------------------------------------------------------------------------------|
A|---------------------------------------------------------------------------------------------------------|
E|---------------------------------------------------------------------------------------------------------|

e|---------------------------------|
B|---------------------------------|
G|-9~-----9--7~--------------------|
D|---------------------------------|
A|---------------------------------|
E|---------------------------------|


There is now another verse and extended chorus played the same as previous
from here on out I'm not sure what the chords for the rhythm guitar are but the lead goes 
something like this


e|---------------------------------------10------------------------------10-----------------|
B|--10b12br10--8h10-8-----------8~--10b12---10b12br10p8--8h10--10-8-10b12----10b12br10p8----|
G|--------------------7h9-7-7h9~-------------------------9-------------------------------9~-|
D|------------------------------------------------------------------------------------------|
A|------------------------------------------------------------------------------------------|
E|------------------------------------------------------------------------------------------|

e|-------------------------0^^^^^^^^^^^^^^^^^^^^^^^^^^^10^^^^^^^15^^^^^^^^^^^^^^^^^^^^^^^^^15p12^^^|
B|------------------------12^^^^^^^^^^^^^^^^^^^^^^^^^^^12^^^^^^^12^^^^^^^^^^^^^^^^^^^^^^^^^12^^^^^^|
G|-------------------------------------------------------------------------------------------------|
D|-------5-7b8rb7-5---7/9--------------------------------------------------------------------------|
A|---5-7------------7------------------------------------------------------------------------------|
E|-------------------------------------------------------------------------------------------------|

e|--10^^^^^^^^^^^^^7^^^^^^^^^^^^^^^^7^^^^^^^^^^^^^^^^^7^^^^8^^^^10^^^^8^^^^7^^^^^^^^^^^^^^^^^^^^^^^|
B|--10^^^^^^^^^^^^^8^^^^^^^^^^^^^^^^8^^^^^^^^^^^^^^^^^8^^^^^^^^^^^^^^^^^^^^^^^^^^^^^^^^^^^^^^^^^^^^|
G|----------------------------------9^^^^^^^^^^^^^^^^^9^^^^^^^^^^^^^^^^^^^^^^^^^^^^^^^^^^^^^^^^^^^^|
D|-------------------------------------------------------------------------------------------------|
A|-------------------------------------------------------------------------------------------------|
E|-------------------------------------------------------------------------------------------------|


e|--12^^^^^^^^^^^^^14^^^^^15^^^^^^^^^^^^12^^^^^^^^10^^^^^^^^^^^^^7^^^^^^^^^^^8^^^^^^^^^^7^^^^^^^^^^|
B|--12^^^^^^^^^^^^^^^^^^^^^^^^^^^^^^^^^^^^^^^^^^^^10^^^^^^^^^^^^^8^^^^^^^^^^^^^^^^^^^^^^^^^^^^^^^^^|
G|-------------------------------------------------------------------------------------------------|
D|-------------------------------------------------------------------------------------------------|
A|-------------------------------------------------------------------------------------------------|
E|-------------------------------------------------------------------------------------------------|


e|--15^^^^^^^^^^^^^17^^^^^15^^17^^^^^^15^^^^^^^^^^12^^^^^^^^^10^^^^^^7^^^7~------------------------|
B|--15^^^^^^^^^^^^^^^^^^^^^^^^^^^^^^^^^^^^^^^^^^^^12^^^^^^^^^10^^^^^^8^^^8~------------------------|
G|-----------------------------------------------------------------------9~------------------------|
D|-------------------------------------------------------------------------------------------------|
A|-------------------------------------------------------------------------------------------------|
E|-------------------------------------------------------------------------------------------------|

the song then finishes with a more verse and another chorus all played in clean with the original
reverb.

thanks

************************************

| (n) Ghost note
| h   Hammer-on
| p   Pull-off
| r   Release
| b   Bend
| br  Bend release
| /   Slide up
| \   Slide down
| ~   Vibrato

************************************
Suggest correction
Creating personal tab
Creating personal tab
You can edit any tab online and save it as your Personal.

You can edit, replace or remove any tab part or add personal notes – all changes will be seen only by you.

Personal tabs can be accessed anytime from any device, even offline.
Learn more »
Give kudos to tab author, rate the tab!
1 2 3 4 5
comments
print report bad tab
1 comment total.
0 reply
sime.ches 10 Jan 13, 2017 11:13 PM

beast tab mate!

guest
You may want to rate the tab now too:
select rating
Wanna post a correction for this tab? Suggest correction