Oops, an error
Loading. Please wait.

Rest Of You Chords

235 views 12 this week
no commentswrite comment
1 2 3 4 5
3 more votes to show rating
add to favorites
launch autoscroll
font size
0
reset
transpose
0
reset
simplify chords
display chords
guitar tuner
Autoscroll
slow
fast
+/-
esc
set tempo
stop
Help us to improve Ultimate-Guitar.com Take our survey!
×
Author
This song has 4 chords but played with little licks throughout. 
There are 2 main ones though, one at the start of the progression and one at the end of the verses.
Ive tabbed these below.
I play the Bm pentatonic over it and it works sweet.
The rest you can figure out easy as. Just strum and fingerpick



Em7 "lick" and progression
                  
         Em7     E7sus4     D       F#m7     Bm7
e|--------7--------7--------5--------2--------7--------------|
B|--------7h8------10-------7--------2--------7--------------|
G|--------7--------7--------7--------2--------7--------------|
D|--------7h9------9--------7--------2--------7--------------|
A|--------7--------7--------5--------4--------9--------------|
E|--------x--------x--------x--------2--------7--------------|


End of verse lick

e|-----------------------------------------------------------|
B|-----------------------------------------------------------|
G|--9/11-9-7-7h9-7---7-7h9-9/11----9/11-9-7-7h9-7---7-7h9-7--|
D|-----------------9------------------------------9----------|
A|-----------------------------------------------------------|
E|-----------------------------------------------------------|



[Verse #1]

Em7 D         F#m7        Bm7
Roxy, are you better than me

Em7 D                F#m7     Bm7
    For leaving us behind
Em7  D                 F#m7         Bm7
I've seen you drifting further from me
Em7       D         F#m7        Bm7
Just hold on to the light


[Verse #2]

Em7 D         F#m7         Bm7
Roxy, are you listening to me
Em7              D           F#m7    Bm7
You think that we are losing time
Em7   D                    F#m7      Bm7
Cos I need what you're not giving to me
Em7    D        F#m7     Bm7
Before I'm satisfied


[Chorus]

           Em7 D       F#m7    Bm7
So give me the rest of you
           Em7 D       F#m7    Bm7
So give me the rest of you
           Em7 D       F#m7    Bm7
So give me the rest of you
           Em7 D       F#m7    Bm7
So give me the rest of you


[Verse #3]

Em7     D                   F#m7      Bm7
See I'm sure that you don't see me no more
Em7            D               F#m7      Bm7
So tell me who has stolen your eye
Em7     D               F#m7    Bm7
It's clear that someone else is here
Em7     D                  F#m7      Bm7
Just tell him that you are mine


[Instrumental]


[Chorus]

           Em7 D       F#m7    Bm7
So give me the rest of you
           Em7 D       F#m7    Bm7
So give me the rest of you
           Em7 D       F#m7    Bm7
So give me the rest of you
           Em7 D       F#m7    Bm7
So give me the rest of you


[Verse #4]

Em7 D     F#m7        Bm7
Roxy, how long has it been
Em7     D            F#m7      Bm7
I trust that you are doing well
Em7     D            F#m7        Bm7
It seems that he was better than me
Em7     D         F#m7      Bm7
So this is my farewell

[Chorus to finish]

Suggest correction
Give kudos to tab author, rate the tab!
1 2 3 4 5
comments
print report bad tab
guest
You may want to rate the tab now too:
select rating
Wanna post a correction for this tab? Suggest correction