Oops, an error
Loading. Please wait.

Someone To Be Around Tab

version 2
version 2

Whole song

3,126 views 9 this week
no commentswrite comment
1 2 3 4 5
please rate
add to favorites
launch autoscroll
font size
0
reset
how to read this tab
guitar tuner
Tab Pro tools
  • play this tab
  • loop segment
  • change instrument
  • show fretboard
  • metronome
×
Best way to learn
"Someone To Be Around"
Autoscroll
slow
fast
+/-
esc
set tempo
stop
-------------------------------------------------------------------------------
                             SOmeone to be around - six60
-------------------------------------------------------------------------------
Tabbed by:lawrence dewstow
Email:larwencedewstow@hotmail.co.nz

Tuning:standard

e|--x--5---x--5--|--x--9---x--9---|--x--7---x--7---|--x--7---x--7---|
b|--x--5---x--5--|--x--9---x--9---|--x--7---x--7---|--x--7---x--7---|
g|--x--6---x--6--|--x--9---x--9---|--x--8---x--8---|--x--8---x--8---|
D|--x--7---x--7--|--x--9---x--9---|--x--9---x--9---|--x--9---x--9---|
A|--x------x-----|--x------x------|--x------x------|--x------x------|
E|--x------x-----|--x------x------|--x------x------|--x------x------|
      A                c#m                 B               B
e|---------------------------------------------------------------------------|
B|---------------------------------------------------------------------------|
G|---9/11/9------9-------9/11/9-----9--------------9--9h11---9-9/11/9-----9--|
D|---9/11/9------9-------9/11/9-----9-------9--11------------9-9/11/9-----9--|
A|-----------11------------------11------11----------------------------11----|
E|---------------------------------------------------------------------------|

e|---------------------------------------------------------------------------|
B|---------------------------------------------------------------------------|
G|--9/11/9-----9------9-9h11---9/11/9-----9----------------------------------|
D|--9/11/9-----9---------------9/11/9-----9----------------------------------|
A|----------11-------------------------11------------------------------------|
E|---------------------------------------------------------------------------|

 You repeat these same chords and this riff throughout the song until after the
 first chorus:

  1st SOLO
e|-------------------------------------------------------7--9/12-12-12-12/14-|
B|----------9h10p9---------------------------------7--9----------------------|
G|------9h11-------9-9h11p9-9-9h11p9------------9----------------------------|
D|-----------------------------------11-9~~~~--------------------------------|
A|---------------------------------------------------------------------------|
E|---------------------------------------------------------------------------|

e|--14-14--14b--14-14b-12----12--------------------------------------------------|
B|------------------------14----14---14-12-9-7-----------------------------------|
G|-------------------------------------------9-9/11-------11-11b-9---------------|
D|------------------------------------------------------------------11~~~~~~-----|
A|-------------------------------------------------------------------------------|
E|-------------------------------------------------------------------------------|
  in the last chorus nearing the end of the song i just basiclly improvise using
  using the same notes, in a different order, with bends, hammer on's, and pull
  offs here and there.

  yeah so thats basiclly my interpretation of the song and enjoy, email me if you
  have any questions.

************************************

| /   slide up
| \   slide down
| h   hammer-on
| p   pull-off
| ~   vibrato
| +   harmonic
| x   Mute note
| b   Bend
| pb  Pre-bend
| br  Bend release
| pbr Pre-bend release
| brb Bend release bend

************************************
comments
We did not receive enough feedback on this tab! Please rate:
print report bad tab
1 2 3 4 5
I want to post or [tab]
guest
You may want to rate the tab now too:
select rating
Please do not post tabs as comments. Select "correction" instead!