Oops, an error
Loading. Please wait.

Im The King tab

by Six Def
2,543 views 3 this week
1 commentread comment
1 2 3 4 5
x 3
add to favorites
×
Save as Personal and add changes to this tab that will be seen only by you. Learn more ›
×
You can save this tab as Personal to edit and correct it or add notes. All changes will be seen only by you. Learn more »
launch autoscroll
font size
0
reset
how to read this tab
guitar tuner
edit
Autoscroll
slow
fast
+/-
esc
set tempo
stop
Author
Difficulty
I'M THE KING by SIX DEF

I heard this song on Suits S02E16 and thought it was badass. Pretty easy and fun to play 
song with a little fuzz

email: sevenfx7 at gmail

-john





RIFF A

E|--------------------------------------------------------|
B|--------------------------------------------------------|
G|--------------------------------------------------------|
D|-------4--4--------------------------4--4---------------|
A|--2h4------------2h4------------2h4------------2--------|
E|----------------------5--2------------------------5--2--|

RIFF B

E|--------------------------------------------|
B|--------------------------------------------|
G|--2h3-------------------------2h3-----------|
D|-------4--2--4--2--2-------2-------4--2--4--|
A|----------------------2h4-------------------|
E|--------------------------------------------|

RIFF C1


E|-2----2--5b--2------2-----2-----2--5b--2-----2------|
B|---5b------------------5b----5b----------------5b---|
G|----------------------------------------------------|
D|----------------------------------------------------|
A|----------------------------------------------------|
E|----------------------------------------------------|

RIFF C2

E|-2----2--7b--2------2-----2-----2--5b--2-----2------|
B|---5b------------------5b----5b----------------5b---|
G|----------------------------------------------------|
D|----------------------------------------------------|
A|----------------------------------------------------|
E|----------------------------------------------------|

Song structure:

RIFF A   x8
RIFF B   x4
RIFF B   x4 with Guitar2 playing RIFF C1 x2 followed by RIFF C2 x2


RIFF A   x8
RIFF B   x4
RIFF B   x4 with Guitar2 playing RIFF C1 x2 followed by RIFF C2 x2

RIFF A x8
Suggest correction
Creating personal tab
Creating personal tab
You can edit any tab online and save it as your Personal.

You can edit, replace or remove any tab part or add personal notes – all changes will be seen only by you.

Personal tabs can be accessed anytime from any device, even offline.
Learn more »
Give kudos to tab author, rate the tab!
1 2 3 4 5
comments
print report bad tab
1 comment total.
0 reply
diablo.tiel 10 Nov 21, 2015 03:16 AM

works better for me
RIFF A

E|--------------------------------------------------------|
B|--------------------------------------------------------|
G|--------------------------------------------------------|
D|-------4--4--------------------------4--4---------------|
A|--2h4------------2h4------------2h4------------2--0-----|
E|----------------------5--2--------------------------2---|

guest
You may want to rate the tab now too:
select rating
Wanna post a correction for this tab? Suggest correction