Oops, an error
Loading. Please wait.

Alive And Dead Tab

1,383 views 1 this week
4 commentsread comments
1 2 3 4 5
please rate
add to favorites
launch autoscroll
font size
0
reset
how to read this tab
guitar tuner
Autoscroll
slow
fast
+/-
esc
set tempo
stop
Help us to improve Ultimate-Guitar.com Take our survey!
×
Author
Artist: Six Feet Under
Album: ALive and Dead
year:1996
Tabbed By: NoFX_2525

Short album but some good stuff on it! So, all you Six Feet Under fans please rate and 
comment on something that is good or either bad because then, i can change it:D Peace, nofx_2525

1)Insect
2)Drowning
3)Grinder
4)Human Target
5)Burning Blood
6)War is Coming
7)Nonexistence
8)A Journey Into Darkness
9)Manipulation

---------------------------------------------------------------------------------|
---------------------------------------------------------------------------------|
1) Insect:
. - palm mute

Tuning: D, G, C, F, A, D

Intro
|--------------------------------------------------|
|--------------------------------------------------|
|--------------------------------------------------|
|--------------------------------------------------|
|-9------------------------------------------------|
|-7------------------------------------------------|

Riff 1
|-------------------------|
|-------------------------|
|-------------------------|
|-------------------9--10-|
|-9---99---9---99---7--8--|
|-7-0-77-0-7-0-77-0-7--8--|

Riff 2
|----------|
|----------|
|----------|
|---6---4--|
|-5-4-3-2--|
|-3---1----|

Riff 3
|---------------------|
|---------------------|
|---------------------|
|---------------------|
|------7------5----8--|
|-0000-5-0000-3-00-6--|

Play Intro
Play Riff 1 - 8 times
Play Riff 2 - 2 times
Play Riff 1 - 6 times
Play Riff 2 - 4 times
Play Riff 3 - 8 times
Play Riff 2 - 4 times
Play Riff 1 - 4 times

------------------------------------------------------------------------------|
------------------------------------------------------------------------------|

2) Drowning:
.  - palm mute
/  - slide up to
  - slide down to
"  - tremolo note

TUNING NORMAL: D Tuning(D,G,C,F,A,D)

Riff A
|-----------------------------------|
|-----------------------------------|
|-----------------------------------|
|-----------------------------------|
|---------9"--8"----------7"--6"----|
|-0"--7"----------0"--5"------------|
  .   .   .   .   .   .   .   .

Play Riff A a total of 8 times

 Riff B
|------------------|
|------------------|
|------------------|
|-5---4---5---4444-|
|-3---2---3---2222-|
|-3---2---3---2222-|

Play Riff A 4x

 Riff C
|-------------------------------------------|
|-------------------------------------------|
|-------------------------------------------|
|-5---4---5-5-5-4---5-5-5-4-4-4-5-5-5-4444--|
|-3---2---3-3-3-2---3-3-3-2-2-2-3-3-3-2222--|
|-3---2---3-3-3-2---3-3-3-2-2-2-3-3-3-2222--|

Play Riff A 4x

 Riff D                repeat 2x
|-----------------||---------------------------||------------------------|
|-----------------||---------------------------||------------------------|
|-----------------||*-------------------------*||------------------------|
|-5---4---5-5-5-4-||*-5-5-5-4-4-4-5-5-5-4-4-4-*||-5-5-5-4-4-4-5-5-5-4444-|
|-3---2---3-3-3-2-||--3-3-3-2-2-2-3-3-3-2-2-2--||-3-3-3-2-2-2-3-3-3-2222-|
|-3---2---3-3-3-2-||--3-3-3-2-2-2-3-3-3-2-2-2--||-3-3-3-2-2-2-3-3-3-2222-|


 Riff E
|----------------|---------------|
|----------------|---------------|
|----------------|---------------|
|----------------|------------4--|
|-2------5/6-6---|-2------33--2--|
|-0--00--3/4-4---|-0--00--11-----|
     ..               ..

Play Riff E a total of 8 times
Play Riff D
Play RIff A 4x

 Riff F                repeat 2x
|----------------||---------------------------||------------------------------|
|----------------||---------------------------||------------------------------|
|----------------||*-------------------------*||------------------------------|
|5---4---5-5-5-4-||*-5-5-5-4-4-4-5-5-5-4-4-4-*||-5-5-5-4-4-4-5-5-5-444----2---|
|3---2---3-3-3-2-||--3-3-3-2-2-2-3-3-3-2-2-2--||-3-3-3-2-2-2-3-3-3-222542-----|
|3---2---3-3-3-2-||--3-3-3-2-2-2-3-3-3-2-2-2--||-3-3-3-2-2-2-3-3-3-22232-----|

------------------------------------------------------------------------------|
------------------------------------------------------------------------------|
3) Grinder:
d tuning
play that 4x       riff A   ( x2)

       /

   |-------------------|-------------------|-------|-------------------|
   |-------------------|-------------------|-------|-------------------|
   |-------------------|-------------------|--.-/.-|-------------------|
   |-7-7-7--7-7-10-10-9|-7-7-7--7-7-10-10-9|---/---|-5-5-5--5-5-10-10-9|
   |-7-7-7--7-7-10-10-9|-7-7-7--7-7-10-10-9|-------|-5-5-5--5-5-10-10-9|
   |-5-5-5--5-5-8--8--7|-5-5-5--5-5-8--8--7|-------|-3-3-3--3-3-8--8--7|

             end riff A  chorus  riff B                     end riff B

   |-------------------|-----------------------------------------------|
   |-------------------|-----------------------------------------------|
   |-------------------|-----------------------------------------------|
   |-7-7-7--7-7-10-10-9|-2-4-----4-----4-----2-4-5-4-------------------|
   |-7-7-7--7-7-10-10-9|-2-4-----4-----4-----2-4-5-4-------------------|
   |-5-5-5--5-5-8--8--7|-0-2-2-2-2-2-2-2-2-2-0-2-3-2-2-2-2-2-2-2-------|

                             . .   . .   . .         . . . . . .

                    end chorus

   |-----------------------------|
   |-----------------------------|
   |-----------------------------|
   |-2-4-----4-----4-----2-4-5-4-|
   |-2-4-----4-----4-----2-4-5-4-|
   |-0-2-2-2-2-2-2-2-2-2-0-2-3-2-|

         . .   . .   . .

   riff A x 2

   lead fill 1

   |-----------------------------|
   |-b---------------------------|
   |-7a.h.--5tr7-----14>---------|
   |-------------7~--------------|
   |-----------------------------|
   |-----------------------------|

   chorus

   guitar solo w/ riff A   I think most of this is accurate.

   |-------------------------------------------------------------------|
   |-------------------------------------5-5-5-5-8p5-----5~------------|
   |-7~-7~-7~-7~-5---------------7-7-7-7-------------7-7---------------|
   |---------------7a.h.-7-7-7-7---------------------------------------|
   |-------------------------------------------------------------------|
   |-------------------------------------------------------------------|

   |-5h8p5---5h8p5---5h8p5---5h8p5---5h8p5---5h8p5-5h8p5---------------|
   |-------5-------5-------5-------5-------5------5------8p5-----------|
   |---------------------------------------------------------7-5-7-----|
   |-------------------------------------------------------------------|
   |-------------------------------------------------------------------|
   |-------------------------------------------------------------------|

   |--------------------8p5-----8p5-----8p5-----8p5-----8p5-----8p5------|
   |-b-r---------------------8p5-----8p5-----8p5-----8p5----8p5----8p5---|
   |-7-7-5tr7------------------------------------------------------------|
   |------------7~-7-----------------------------------------------------|
   |---------------------------------------------------------------------|
   |---------------------------------------------------------------------|

   |-8p5-----8p5-------------------------------------------------------|
   |-----8p5-----8p5--5-5-5-8p5-5-5-8p5-----8a.h-7a.h.-5a.h.-----------|
   |------------------------------------7-5------------------7a.h.-----|
   |-------------------------------------------------------------------|
   |-------------------------------------------------------------------|
   |-------------------------------------------------------------------|

                           b

   |-------5>--------------8>--------------------------------------------|
   |------------5>-------------------------------------------------------|
   |-------------------8>------------------------------------------------|
   |--5>-----------------------------------------------------------------|
   |---------------------------------------------------------------------|
   |---------------------------------------------------------------------|

   slow part

   |-------------------------------------------------------------------|
   |-------------------------------------------------------------------|
   |-------------------------------------------------------------------|
   |-2-----3-4-----4-----4---2-----3-4-----4-----4---7-7-4-2-----2-----|
   |-2-----3-4-----4-----4---2-----3-4-----4-----4---7-7-4-2-----2-----|
   |-0-0-0-1-2-2-2-2-2-2-2-2-0-0-0-1-2-2-2-2-2-2-2-2-5-5-2-0-0-0-0-0-0-|

       . .     . .   . .   .   . .     . .   . .   .         . .   . .

                 1st ending        2nd ending

   |-----------|---------------|-|-------------------------------------|
   |-----------|--------------.|-|-------------------------------------|
   |---------2-|---------------|-|-------------------------------------|
   |-2-------2-|-4-----4-----4.|-|--4-----4-----4-----4-2--------------|
   |-2-----2-0-|-4-----4-----4-|-|--4-----4-----4-----4-2--------------|
   |-0-0-0-0---|-2-2-2-2-2-2-2-|-|--2-2-2-2-2-2-2-2-2-2-0--------------|

       . .         . .   . .          . .   . .   . .

     this twice               then play riff A twice w/ 3rd verse

   |-----------------------------------------|
   |-----------------------------------------|
   |-----------------------------------------|
   |-7-7-7--7-7-10-10-9----------------------|
   |-7-7-7--7-7-10-10-9----------------------|
   |-5-5-5--5-5-8--8--7----------------------|

     lead fill 2

   |---b---------b--r------------------|
   |--15-13tr15-15-13--13tr15----------|
   |--------------------------14~~-----|
   |-----------------------------------|
   |-----------------------------------|
   |-----------------------------------|

   the last chorus is a little different from the others.

    play riff B 3 times     "Grinder, bitch!..."

    then the 4th time goes

   " Grinder, motherfucker!"                "Grin-der!"

   |------------------------------------------------------|
   |------------------------------------------------------|
   |------------------------------------------------------|
   |-2-4-----4-----4-----2--4-7-9------------2--4---------|
   |-2-4-----4-----4-----2--4-7-9------------2--4---------|
   |-0-2-2-2-2-2-2-2-2-2-0--2-5-7------------0--2---------|
         . .   . .   . .
----------------------------------------------------------------------------|
----------------------------------------------------------------------------|
4) Human Target:
Dropped D tuning

Intro:

E|------------|
B|------------|
G|------------|
D|---5--------|
A|---5--------|
E|---5--------|


Main Riff:
1. 3 times                                   2. 4th
time
E|-----------------------------------------||-------------------------------------|
B|-----------------------------------------||-------------------------------------|
G|-----------------------------------------||-------------------------------------|
D|-----------------------------------------||-------------------------------------|
A|------------------------------------2----||-------------------------------------|
E|-0--0--0--0--0----3--3--3--3--3--------3-||-0--0--0--0--0----1--1--1--1----1--1-|


Chorus:

E|-----------------|----------------------------------------|
B|-----------------|----------------------------------------|
G|-----------------|----------------------------------------|
D|-----------------|----------------------------------------|
A|-0--0--0--0--0---|---0--0--0--0--0----0--0--1----0--0--1--|
E|-0--0--0--0--0---|---0--0--0--0--0----0--0--1----0--0--1--|


E|-----------------|----------------------------------------|
B|-----------------|----------------------------------------|
G|-----------------|----------------------------------------|
D|-----------------|----------------------------------------|
A|-0--0--0--0--0---|---0--0--0--0--0----0--0--6----0--0--6--|
E|-0--0--0--0--0---|---0--0--0--0--0----0--0--6----0--0--6--|


Bridge:

E|--------------------------------------------------|
B|--------------------------------------------------|
G|--------------------------------------------------|
D|--------------------------------------------------|
A|-0--0--0--0--4--4--4--3--3--3--3--3--1--1--1--1---|
E|-0--0--0--0--4--4--4--3--3--3--3--3--1--1--1--1---|

E|--------------------------------------------------|
B|--------------------------------------------------|
G|--------------------------------------------------|
D|--------------------------------------------------|
A|-0--0--0--0--4--4--3--3--3--3--4--4--6--6--6--6---|
E|-0--0--0--0--4--4--3--3--3--3--4--4--6--6--6--6---|

----------------------------------------------------------------------------------|
----------------------------------------------------------------------------------|
5)Burning Blood:
Tuning: D G C F A D


VERSE
|-------------------------------------|
|-------------------------------------|
|-------------5-4------------8-----7--|
|-7--7------5-5-4--7--7------8-----7--|
|-7--7------5-3-2--7--7------6-----5--|
|-5--5--0-0-3-3-2--5--5--0-0---0-0----|
        ...              ...   ...


CHORUS
|-------------------------------------------------------|
|-------------------------------------------------------|
|-------------------------------------------------------|
|-2-----5----------8------7--2-----3----------6------5--|
|-2-----5----------8------7--2-----3----------6------5--|
|-0-0-0-3--0-0-0-0-6--0-0-5--0-0-0-1--0-0-0-0-4--0-0-3--|
    ...    .......    ...      ...    .......    ...


VERSE 2 - Same


CHORUS 2 - Same


SOLO
|---------------------------------------------|
|---------------------------------------------|
|----------------87---------------------------|
|-2-2-5--------7-87-7--2-2-5--------83-5------|
|-2-2-5--------7-65-7--2-2-5--------83-5------|
|-0-0-3-0-0--0-5-65-5--0-0-3-0-0--0-61-3------|
        ...  .                ...  .


CHORUS 3 - Same


INTERLUDE - Play guitar solo riff


VERSE 3 - Same


CHORUS 4 - Same


VERSE 4/OUTRO - Same
-----------------------------------------------------------------------------|
-----------------------------------------------------------------------------|
6) War Is Coming:
Tuning: D G C F A D


VERSE
|--------------------------------|
|--------------------------------|
|-----------------8-----7-----8--|
|---------7/8-----8-----7-----8--|
|---------7/8-----6-----5-----6--|
|-0-0-0-0-5/6-0-0---0-0---0-0----|
  .......     ...   ...   ...


CHORUS
|--------------------------------|
|--------------------------------|
|--------------------------------|
|---------3-------6-----5-----8--|
|---------3-------6-----5-----8--|
|-0-0-0-0-1---0-0-4---0-3---0-6--|
  .......     ...     .     .


VERSE 2 - Same


CHORUS 2 - Same


INTERLUDE
|----------------------------|
|----------------------------|
|-------5---6----------------|
|-2---5-5-5-6---5-5---/8--3--|
|-2---5-3-5-4---5-5---/8--3--|
|-0---3-3-3-4---3-3---/6--1--|
      .   .     ...


VERSE 3 - Same


CHORUS 3 - Same


End on
|---------------------------------|
|---------------------------------|
|---------------------------------|
|---------3-------6---5---8--2----|
|---------3-------6---5---8--2----|
|-0-0-0-0-1---0-0-4---3---6--0----|
  .......     ...

-------------------------------------------------------------------------------|
-------------------------------------------------------------------------------|
7)Nonexistence:
Tuning: D G C F A D


VERSE
|--------------------------------------------------------|
|--------------------------------------------------------|
|--------------------------------------------------------|
|-2------2------2------2------2------2------5----8----3--|
|-2------2------2------2------2------2------5----8----3--|
|-0--0-0-0--0-0-0--0-0-0--0-0-0--0-0-0--0-0-3--0-6--0-1--|
     ...    ...    ...    ...    ...    ...    .    .


CHORUS
|---------------------------------------|
|---------------------------------------|
|---------------------------------------|
|-8---9--9-9-9--2-2-2---5----3----------|
|-8---9--9-9-9--2-2-2---5----3----------|
|-6-0-7--7-7-7--0-0-0-0-3--0-1--0-0-0-0-|
                      .    .    .......

|---------------------------------------|
|---------------------------------------|
|---------------------------------------|
|-8---9--9-9-9--2-2-3---5----3----------|
|-8---9--9-9-9--2-2-3---5----3----------|
|-6-0-7--7-7-7--0-0-1-0-3--0-1--0-0-0-0-|
                      .    .    .......

|---------------------------------------|
|---------------------------------------|
|---------------------------------------|
|-8---9--9-9-9--2-2-2---5----3----------|
|-8---9--9-9-9--2-2-2---5----3----------|
|-6-0-7--7-7-7--0-0-0-0-3--0-1--0-0-0-0-|
                      .    .    .......

|--------------|
|--------------|
|--------------|
|-8---9--9-9-9-|
|-8---9--9-9-9-|
|-6-0-7--7-7-7-|


SOLO - Play verse riff


VERSE 2 - Same


CHORUS 2 - Same


INTERLUDE
|-----------------------------------|
|-----------------------------------|
|-----------------------------------|
|-2-2-------3-3----5-5-------6-6----|
|-2-2-------3-3----5-5-------6-6----|
|-0-0-0-0-0-1-1----3-3-3-3-3-4-4----|
      .....            .....


VERSE 3 - Same


CHORUS 3 - Same


VERSE 4 - Same

End on
|------------------|
|------------------|
|------------------|
|-5----8----3--2-2-|
|-5----8----3--2-2-|
|-3--0-6--0-1--0-0-|
     .    .
------------------------------------------------------------------------------|
------------------------------------------------------------------------------|
8) A Journey Into Darkness:
Tuning: D G C F A D


VERSE
|----------------------|
|----------------------|
|----------------------|
|---------5---------5--|
|---------5---------5--|
|-0-0-0-0-3--0--0-0-3--|
  .......    .  ...

Lead
|-----------------------------|
|-12-----11-----10-----9------|
|-14b16--13b15--12b14--11b13--|
|-----------------------------|
|-----------------------------|
|-----------------------------|


CHORUS
|-----------------------|
|-----------------------|
|-----------------------|
|-2-2--------2-2--------|
|-2-2--------2-2--------|
|-0-0--------0-0--------|


VERSE 2 - Same


CHORUS 2 - Same


INTERLUDE
|---------------------------------|
|---------------------------------|
|---------------------------------|
|-3-------6-------3-------5-------|
|-3-------6-------3-------5-------|
|-1-0-0-0-4-0-0-0-1-0-0-0-3-0-0-0-|
    .....   .....   .....   .....


VERSE 3 - Same

End on
|-----------------------------------------------------------------------------|
|-----------------------------------------------------------------------------|
|-----------------------------------------------------------------------------|
|-2-2-------------------------------------------------------------------------|
|-2-2-------------------------------------------------------------------------|
|-0-0-------------------------------------------------------------------------|
------------------------------------------------------------------------------|
------------------------------------------------------------------------------|
9) Manipulation:
Tuning: D G C F A D


VERSE
|---------------------------------------------------------|
|---------------------------------------------------------|
|---------------------------------------------------------|
|-3-------2----------2----2----3-------2----------8---3---|
|-3-------2----------2----2----3-------2----------8---3---|
|-1p0-0-0-0--0-0-0-0-0--0-0--0-1p0-0-0-0--0-0-0-0-6-0-1-0-|
      ...    .......    .    .     ...    .......   .   .


CHORUS
|--------------------------|
|--------------------------|
|-------5----5-6----5------|
|-2-2-5-5-5--5-6--5-5-5--3-|
|-2-2-5-3-5--3-4--5-3-5--3-|
|-0-0-3-3-3--3-4--3-3-3--1-|
  ...


VERSE 2 - Same


CHORUS 2 - Same


INTERLUDE
|------------------------------------------|
|------------------------------------------|
|------------------------------------------|
|-----3----------6----5----8----7----53----|
|-----3----------6----5----8----7----53----|
|-0-0-1--0-0-0-0-4--0-3--0-6--0-5--0-31----|
  ...    .......    .    .    .    .


VERSE 3 - Same


CHORUS 3 - Same


VERSE 4 - Same

End on
|--------------------------------------------------------------|
|--------------------------------------------------------------|
|--------------------------------------------------------------|
|-3-------2----------2----2----3-------2----------8---3---2----|
|-3-------2----------2----2----3-------2----------8---3---2----|
|-1p0-0-0-0--0-0-0-0-0--0-0--0-1p0-0-0-0--0-0-0-0-6---1---0----|
      ...    .......    .    .     ...    .......
----------------------------------------------------------------------------|
----------------------------------------------------------------------------|

There we go. Not too hard hey? Look, this tab took me like half of my day to write out 
read it, Rate it 5 stars and last but not least comment on it!!

----------------------------------------------------
PEACE OU EVERYBODY AND ALL YOU SIX FEET UNDER FANS!
----------------------------------------------------
Suggest correction
What's this?
You can suggest a correction to this tab. Community and Mods will review your correction and vote to approve or reject it.
comments
We did not receive enough feedback on this tab! Please rate:
print report bad tab
1 2 3 4 5
4 comments total. Showing first comments.
0 reply
nofx_2525 1,935 wrote on December 21 2006, 05:36 am

Is noone going to Rate or Comment this tab?

0 reply
Robin Graves 983 wrote on January 29 2007, 12:02 am

here's a comment.

0 reply
YourMessiah666 1,211 wrote on May 22 2007, 10:00 pm

Here's another.

guest
You may want to rate the tab now too:
select rating
Please do not post tabs as comments. Select "correction" instead!