Oops, an error
Loading. Please wait.

Amerika The Brutal Bass Tab

version 2
version 2

Whole song

Interactive

455 views 1 this week
no commentswrite comment
1 2 3 4 5
3 more votes to show rating
add to favorites
launch autoscroll
font size
0
reset
guitar tuner
Autoscroll
slow
fast
+/-
esc
set tempo
stop
Help us to improve Ultimate-Guitar.com Take our survey!
×
-------------------------------------------------------------------------------
			     Amerika The Brutal - Six Feet Under
-------------------------------------------------------------------------------

Tabbed By : Juiceboxzero93
e-mail: glorylastsforever@gmail.com

Tuning: F#,C#,G#,D#


F#||------|------|------|--------------------------|--------------------------|
C#||------|------|------|--------------------------|--------------------------|
G#||------|------|------|--------------------------|--------------------------|
D#||------|------|------|--0--0--0/-3--3--3/-5--5--|--5--5/-6--6/-5--5/-6--6/-|


                                                      
--------------------------|--------------------------|
--------------------------|--------------------------|
--------------------------|--------------------------|
--0--0--0/-3--3--3/-5--5--|--5--5/-6--6/-5--5/-6--6/-|


                                                      
--------------------------|--------------------------|
--------------------------|--------------------------|
--------------------------|--------------------------|
--0--0--0/-3--3--3/-5--5--|--5--5/-6--6/-5--5/-6--6/-|


                                                      
--------------------------|--------------------------|
--------------------------|--------------------------|
--------------------------|--------------------------|
--0--0--0/-3--3--3/-5--5--|--5--5/-6--6/-5--5/-6--6/-|


                                                      
--------------------------|--------------------------|
--------------------------|--------------------------|
--------------------------|--------------------------|
--0--0--0/-3--3--3/-5--5--|--5--5/-6--6/-5--5/-6--6/-|


                                                      
--------------------------|--------------------------|
--------------------------|--------------------------|
--------------------------|--------------------------|
--0--0--0/-3--3--3/-5--5--|--5--5/-6--6/-5--5/-6--6/-|


                                                      
--------------------------|--------------------------|
--------------------------|--------------------------|
--------------------------|--------------------------|
--0--0--0/-3--3--3/-5--5--|--5--5/-6--6/-5--5/-6--6/-|


                                                      
--------------------------|--------------------------|
--------------------------|--------------------------|
--------------------------|--------------------------|
--0--0--0/-3--3--3/-5--5--|--5--5/-6--6/-5--5/-6--6/-|


                                                      
--------------------------|--------------------------|
--------------------------|--------------------------|
--------------------------|--------------------------|
--0--0--0/-3--3--3/-5--5--|--5--5/-6--6/-5--5/-6--6/-|


                                                      
--------------------------|--------------------------|
--------------------------|--------------------------|
--------------------------|--------------------------|
--0--0--0/-3--3--3/-5--5--|--5--5/-6--6/-5--5/-6--6/-|


                                                      
--------------------------|--------------------------|
--------------------------|--------------------------|
--------------------------|--------------------------|
--0--0--0/-3--3--3/-5--5--|--5--5/-6--6/-5--5/-6--6/-|


                                                      
--------------------------|--------------------------|
--------------------------|--------------------------|
--------------------------|--------------------------|
--0--0--0/-3--3--3/-5--5--|--5--5/-6--6/-5--5/-6--6/-|


                                                      
--------------------------|--------------------------|
--------------------------|--------------------------|
--------------------------|--------------------------|
--0--0--0/-3--3--3/-5--5--|--5--5/-6--6/-5--5/-6--6/-|


                                                                               
--------------------------|--------------------------|------------------------|
--------------------------|--------------------------|------------------------|
--------------------------|--------------------------|------------------------|
--0--0--0/-3--3--3/-5--5--|--5--5/-6--6/-5--5/-6--6/-|--2--1--0--1------2--1--|


                                                                       
----------------------|------------------------|----------------------|
----------------------|------------------------|----------------------|
------------2----3----|------------------------|------------3----2----|
--0--1----------------|--2--1--0--1------2--1--|--0--1----------------|


                                                                         
------------------------|----------------------|------------------------|
------------------------|----------------------|------------------------|
------------------------|------------2----3----|------------------------|
--2--1--0--1------2--1--|--0--1----------------|--2--1--0--1------2--1--|


                                                                           
--------------------|--------------------------|--------------------------|
--------------------|--------------------------|--------------------------|
--------------------|--------------------------|--------------------------|
--0--1--------------|--0--0--0/-3--3--3/-5--5--|--5--5/-6--6/-5--5/-6--6/-|


                                                      
--------------------------|--------------------------|
--------------------------|--------------------------|
--------------------------|--------------------------|
--0--0--0/-3--3--3/-5--5--|--5--5/-6--6/-5--5/-6--6/-|


                                                      
--------------------------|--------------------------|
--------------------------|--------------------------|
--------------------------|--------------------------|
--0--0--0/-3--3--3/-5--5--|--5--5/-6--6/-5--5/-6--6/-|


                                                      
--------------------------|--------------------------|
--------------------------|--------------------------|
--------------------------|--------------------------|
--0--0--0/-3--3--3/-5--5--|--5--5/-6--6/-5--5/-6--6/-|


                                                      
--------------------------|--------------------------|
--------------------------|--------------------------|
--------------------------|--------------------------|
--0--0--0/-3--3--3/-5--5--|--5--5/-6--6/-5--5/-6--6/-|


                                                      
--------------------------|--------------------------|
--------------------------|--------------------------|
--------------------------|--------------------------|
--0--0--0/-3--3--3/-5--5--|--5--5/-6--6/-5--5/-6--6/-|


                                                      
--------------------------|--------------------------|
--------------------------|--------------------------|
--------------------------|--------------------------|
--0--0--0/-3--3--3/-5--5--|--5--5/-6--6/-5--5/-6--6/-|


                                                                               
--------------------------|--------------------------|------------------------|
--------------------------|--------------------------|------------------------|
--------------------------|--------------------------|------------------------|
--0--0--0/-3--3--3/-5--5--|--5--5/-6--6/-5--5/-6--6/-|--2--1--0--1------2--1--|


                                                                       
----------------------|------------------------|----------------------|
----------------------|------------------------|----------------------|
------------2----3----|------------------------|------------3----2----|
--0--1----------------|--2--1--0--1------2--1--|--0--1----------------|


                                                                         
------------------------|----------------------|------------------------|
------------------------|----------------------|------------------------|
------------------------|------------2----3----|------------------------|
--2--1--0--1------2--1--|--0--1----------------|--2--1--0--1------2--1--|


                                                             
--------------------|--------------------|------------------|
--------------------|--------------------|------------------|
--------------------|--5--------4--------|------------------|
--0--1--------------|--------------------|------------------|


                                                                                
--------------------|------------------|--------------------|------------------|
--------------------|------------------|--------------------|------------------|
--3--------2--------|------------------|--5--------4--------|------------------|
--------------------|------------------|--------------------|------------------|


                                                                                
--------------------|------------------|--------------------|------------------|
--------------------|------------------|--------------------|------------------|
--3--------2--------|------------------|--5--------4--------|------------------|
--------------------|------------------|--------------------|------------------|


                                                                                
--------------------|------------------|--------------------|------------------|
--------------------|------------------|--------------------|------------------|
--3--------2--------|------------------|--5--------4--------|------------------|
--------------------|------------------|--------------------|------------------|


                                                                   
--------------------|------------------|--------------------------|
--------------------|------------------|--------------------------|
--3--------2--------|------------------|--------------------------|
--------------------|------------------|--0--0--0--0--0--0--0--0--|


                                                      
--------------------------|--------------------------|
--------------------------|--------------------------|
--------------------------|--------------------------|
--0--0--0--0--0--0--0--0--|--0--0--0--0--0--0--0--0--|


                                                      
--------------------------|--------------------------|
--------------------------|--------------------------|
--------------------------|--------------------------|
--2/-3--0--2/-3--0--2/-3--|--0--0--0--0--0--0--0--0--|


                                                      
--------------------------|--------------------------|
--------------------------|--------------------------|
--------------------------|--------------------------|
--0--0--0--0--0--0--0--0--|--0--0--0--0--0--0--0--0--|


                                                      
--------------------------|--------------------------|
--------------------------|--------------------------|
--2/-1-----2/-1-----2/-1--|--------------------------|
--------0--------0--------|--0--0--0--0--0--0--0--0--|


                                                      
--------------------------|--------------------------|
--------------------------|--------------------------|
--------------------------|--------------------------|
--0--0--0--0--0--0--0--0--|--0--0--0--0--0--0--0--0--|


                                                      
--------------------------|--------------------------|
--------------------------|--------------------------|
--------------------------|--------------------------|
--2/-3--0--2/-3--0--2/-3--|--0--0--0--0--0--0--0--0--|


                                                      
--------------------------|--------------------------|
--------------------------|--------------------------|
--------------------------|--------------------------|
--0--0--0--0--0--0--0--0--|--0--0--0--0--0--0--0--0--|


                                                                          
--------------------------|----------------------|-----------------------|
--------------------------|----------------------|-----------------------|
--2/-1-----2/-1-----2/-1--|----------------------|-----------------------|
--------0--------0--------|--3--2--0--2----------|--------2--3--3--3--3--|


                                                                      
----------------------|-----------------------|----------------------|
----------------------|-----------------------|----------------------|
----------------------|-----------------------|----------------------|
--3--2--0--2----------|--------2--3--3--3--3--|--3--2--0--2----------|


                                                                       
-----------------------|----------------------|-----------------------|
-----------------------|----------------------|-----------------------|
-----------------------|----------------------|-----------------------|
--------2--3--3--3--3--|--3--2--0--2----------|--------2--3--3--3--3--|


                                                      
--------------------------|--------------------------|
--------------------------|--------------------------|
--------------------------|--------------------------|
--0--0--0/-3--3--3/-5--5--|--5--5/-6--6/-5--5/-6--6/-|


                                                      
--------------------------|--------------------------|
--------------------------|--------------------------|
--------------------------|--------------------------|
--0--0--0/-3--3--3/-5--5--|--5--5/-6--6/-5--5/-6--6/-|


                                                      
--------------------------|--------------------------|
--------------------------|--------------------------|
--------------------------|--------------------------|
--0--0--0/-3--3--3/-5--5--|--5--5/-6--6/-5--5/-6--6/-|


                                                      
--------------------------|--------------------------|
--------------------------|--------------------------|
--------------------------|--------------------------|
--0--0--0/-3--3--3/-5--5--|--5--5/-6--6/-5--5/-6--6/-|


                                                      
--------------------------|--------------------------|
--------------------------|--------------------------|
--------------------------|--------------------------|
--0--0--0/-3--3--3/-5--5--|--5--5/-6--6/-5--5/-6--6/-|


                                                      
--------------------------|--------------------------|
--------------------------|--------------------------|
--------------------------|--------------------------|
--0--0--0/-3--3--3/-5--5--|--5--5/-6--6/-5--5/-6--6/-|


                                                      
--------------------------|--------------------------|
--------------------------|--------------------------|
--------------------------|--------------------------|
--0--0--0/-3--3--3/-5--5--|--5--5/-6--6/-5--5/-6--6/-|


                                                      
--------------------------|--------------------------|
--------------------------|--------------------------|
--------------------------|--------------------------|
--0--0--0/-3--3--3/-5--5--|--5--5/-6--6/-5--5/-6--6/-|


                                                      
--------------------------|--------------------------|
--------------------------|--------------------------|
--------------------------|--------------------------|
--0--0--0/-3--3--3/-5--5--|--5--5/-6--6/-5--5/-6--6/-|


                                                      
--------------------------|--------------------------|
--------------------------|--------------------------|
--------------------------|--------------------------|
--0--0--0/-3--3--3/-5--5--|--5--5/-6--6/-5--5/-6--6/-|


                                                      
--------------------------|--------------------------|
--------------------------|--------------------------|
--------------------------|--------------------------|
--0--0--0/-3--3--3/-5--5--|--5--5/-6--6/-5--5/-6--6/-|


                                                                               
--------------------------|--------------------------|------------------------|
--------------------------|--------------------------|------------------------|
--------------------------|--------------------------|------------------------|
--0--0--0/-3--3--3/-5--5--|--5--5/-6--6/-5--5/-6--6/-|--2--1--0--1------2--1--|


                                                                       
----------------------|------------------------|----------------------|
----------------------|------------------------|----------------------|
------------2----3----|------------------------|------------3----2----|
--0--1----------------|--2--1--0--1------2--1--|--0--1----------------|


                                                                         
------------------------|----------------------|------------------------|
------------------------|----------------------|------------------------|
------------------------|------------2----3----|------------------------|
--2--1--0--1------2--1--|--0--1----------------|--2--1--0--1------2--1--|


                        
----------------------||
----------------------||
------------3----2----||
--0--1----------------||




| /  slide up
| \  slide down
| h  hammer-on
| p  pull-off
| ~  vibrato
| +  harmonic
| x  Mute note
===============================================================================
	
Suggest correction
Give kudos to tab author, rate the tab!
1 2 3 4 5
comments
print report bad tab
guest
You may want to rate the tab now too:
select rating
Wanna post a correction for this tab? Suggest correction