Oops, an error
Loading. Please wait.

Bonesaw Bass Tab

version 1
version 1

Whole song

Interactive

418 views 1 this week
no commentswrite comment
1 2 3 4 5
please rate
add to favorites
launch autoscroll
font size
0
reset
guitar tuner
Tab Pro tools
  • play this tab
  • loop segment
  • change instrument
  • show fretboard
  • metronome
×
Best way to learn
"Bonesaw"
Autoscroll
slow
fast
+/-
esc
set tempo
stop
Contributor
Intro/Chorus
G|----------------------------|
D|----------------------------|
A|----2-----4-------1---------|
E|-0-----3----1--0-----2--4-1-|

Verse Part 1
G|----------------------------------|
D|----------------------------------|
A|---------44445555-----------------|
E|-22222222--------1111111155553333-|

Verse Part 2
G|------------------------------------|
D|------------------------------------|
A|-6-5------4-3-----------------------|
E|-----0000-----0000-1111111122222222-|

Verse Part 3
Before the bass kicks in, while the guitar is playing...If you listen it sounds like 
is some bass there.I haven't figured it out, but I do improvise it when I playBy throwing 
a wicked slide on E. Experiment...

"Cutting, Killing, Sawed to pieces..."
G|----------------------------------------|
D|----------------------------------------|
A|------2-----------------3---------------|
E|-0000---0000-2/32-0000---0000-4/54------|

Verse Part 4
G|--------------------------------------------|------------------------------------------|
D|--------------------------------------------|------------------------------------------|
A|---------------------------------3/43-0000--|------------------------------------------|
E|-1/21-0000-0000-0000-1/21-0000--------------|-1/21-0000-0000-0000-1/21-0000-3/43-0000--|

Play this under the guitar solo....
G|----------------------------------|
D|----------------------------------|
A|---------44445555-----------------|
E|-22222222--------1111111155553333-|

Structure:
Intro x2
Verse 1 x4
Chorus x2
Verse 2 x4
Verse 1 x4
Chorus x2
Verse 2 x4
*pause*
Verse 3 x4
Verse 4 x2
Solo x4
Chorus x2
comments
We did not receive enough feedback on this tab! Please rate:
print report bad tab
1 2 3 4 5
I want to post or [tab]
guest
You may want to rate the tab now too:
select rating
Please do not post tabs as comments. Select "correction" instead!