Oops, an error
Loading. Please wait.

Day The Dead Walked Tab

version 2
version 2

Whole song

Interactive

1,005 views 1 this week
no commentswrite comment
1 2 3 4 5
accurate
x 1
add to favorites
launch autoscroll
font size
0
reset
how to read this tab
guitar tuner
Tab Pro tools
  • play this tab
  • loop segment
  • change instrument
  • show fretboard
  • metronome
Autoscroll
slow
fast
+/-
esc
set tempo
stop
Contributor
                        SIX FEET UNDER - THE DAY THE DEAD WALKED
                             From the Album - TRUE CARNAGE
                              Copyright - METAL BLADE 2001
                                Version 2.0 Jan 18, 2003


Transcribed by: James Williams (Inverted)

For Questions, Comments, Newest Version, or Corrections contact
Inverted: at Inverted_one@hotmail.com

Check Out Death8699.com Metaltabs.com or dsrmusic.com for More
Transcriptions:http://www.Death8699.com http://www.Metaltabs.com
http://www.dsrmusic.com/metaltab

.  - palm mute           /  - slide up to
\  - slide down to       ~  - vibrato
h  - hammer on           b  - Bend
p  - pull off            Suffixes for bend
t  - tap                 f  - full bend    h - half bend
ph - pinched harmonic    q  - quarter bend t - tap bend
*  - see comment         ^  - Hold bend    r release bend
x  - Rest                ~  - vibrato bend
,  - slight palm mute    () - ghost note, sustained note
"  - tremolo note        <> - Trill

Tuning: "B"E"A"D"F#"B"


Riff 1
|------------------------------------|
|------------------------------------|
|------------------------------------|
|----------777777776666----5555------|
|--55555555------------7777----6666--|
|------------------------------------|


Fill 1                         Gtr II
|------------------------------------|
|------------------------------------|
|--7---------------------------------|
|--7---------------------------------|
|--5---------------------------------|
|--5---------------------------------|


Riff 2-A
|------------------------------------|
|------------------------------------|
|------------------------------------|
|------88889999--------8888----7777--|
|--7777--------88889999----8888------|
|------------------------------------|


Riff 2-B
|------------------------------------|
|------------------------------------|
|------------------------------------|
|------88889999--------8888----------|
|--7777--------88889999----88888888--|
|------------------------------------|


Riff 3
|--------------------------|--------------------------|
|--------------------------|--------------------------|
|-----------2--3-----3--4--|-----------2--3-----------|
|--0--3--2--2--3--1--3--4--|--0--3--2--2--3--3--4--1--|
|--0--3--2--------1--------|--0--3--2--------3--4--1--|
|--------------------------|--------------------------|
|                                                     |
|                                                     |
|--------------------------|--------------------------|
|--------------------------|--------------------------|
|-----------2--3-----3--4--|-----5--4-----3--2-----1--|
|--0--3--2--2--3--1--3--4--|--0--5--4--5--3--2--3--1--|
|--0--3--2--------1--------|--0--------5--------3-----|
|--------------------------|--------------------------|


Riff 4
|---------------------------------------------|
|---------------------------------------------|
|---------------------------------------------|
|---------------------------------------7--6--|
|---------------------------------------7--6--|
|--2-1-0-3-2-0-2-1-0-3-2-0-2-1-0-3-2-0--5--4--|
   . . . . . . . . . . . . . . . . . .

Riff 5
|----------------------------------------------------------------------|
|----------------------------------------------------------------------|
|----------------------------------------------------------------------|
|--5--------5-\-6---6------3-------------------------------------------|
|--5--------5-\-6---6------3-------------------------------------------|
|--3--------3-\-4---4------1------2-1-0-3-2-0-2-1-0-3-2-0-2-1-0-3-2-0--|
                                  . . . . . . . . . . . . . . . . . .
comments
We did not receive enough feedback on this tab! Please rate:
print report bad tab
1 2 3 4 5
I want to post or [tab]
guest
You may want to rate the tab now too:
select rating
Please do not post tabs as comments. Select "correction" instead!