Oops, an error
Loading. Please wait.

Death Or Glory Tab

version 2
version 2

Whole song

Interactive

1,313 views 1 this week
no commentswrite comment
1 2 3 4 5
3 more votes to show rating
add to favorites
launch autoscroll
font size
0
reset
how to read this tab
guitar tuner
Autoscroll
slow
fast
+/-
esc
set tempo
stop
Help us to improve Ultimate-Guitar.com Take our survey!
×
Tabbed by Teamstarskater
I hope you enjoy it!


 INTRO            x3
 |------------------|---------------|
 |------------------|---------------|
 |-10\9-------------|---------------|
 |-10\9-------------|-10---10---12--|
 |-8-\7-------------|-10---10---12--|
 |------0-0-0-0-0-0-|-8----8----10--|
        ...........
 
                  x3
 |------------------|---------------------------------------------------------|
 |------------------|---------------------------------------------------------|
 |-10\9-------------|---------------------------------------------------------|
 |-10\9-------------|-10---10---10---10---10--11--12---12---12---12---12--12--|
 |-8-\7-------------|-10---10---10---10---10--11--12---12---12---12---12--12--|
 |------0-0-0-0-0-0-|-8----8----8----8----8---9---10---10---10---10---10--10--|
        ...........
 
 VERSE            x3
 |------------------|---------------|
 |------------------|---------------|
 |-10\9-------------|---------------|
 |-10\9-------------|-10---10---12--|
 |-8-\7-------------|-10---10---12--|
 |------0-0-0-0-0-0-|-8----8----10--|
        ...........
 
 CHORUS
 |-------------------------------------|
 |-------------------------------------|
 |-------------------------------------|
 |-9----5----7----2---4-5----7----9----|
 |-9----5----7----2---4-5----7----9----|
 |-7----3----5--3-0---2-3----5----7----|
 
 
 VERSE 2 - Same
 
 CHORUS 2 - Same
 
 Play this just before the interlude
                  x2
 |------------------|
 |------------------|
 |-10\9-------------|
 |-10\9-------------|
 |-8-\7-------------|
 |------0-0-0-0-0-0-|
        ...........
 
 INTERLUDE                      x2
 |--------------------------------|
 |--------------------------------|
 |-----2-----4-----5-----------4--|
 |-----2-----4-----5-----5-----4--|
 |-0-0-0-0-0-2-0-0-3-0-0-5-0-0-2--|
 |-----------------------3--------|
   ...   ...   ...   ...   ...
 
                  x2
 |------------------|
 |------------------|
 |-10\9-------------|
 |-10\9-------------|
 |-8-\7-------------|
 |------0-0-0-0-0-0-|
        ...........
                                x2
 |--------------------------------|
 |--------------------------------|
 |-----2-----4-----5-----------4--|
 |-----2-----4-----5-----5-----4--|
 |-0-0-0-0-0-2-0-0-3-0-0-5-0-0-2--|
 |-----------------------3--------|
   ...   ...   ...   ...   ...
 
                  x2
 |------------------|
 |------------------|
 |-10\9-------------|
 |-10\9-------------|
 |-8-\7-------------|
 |------0-0-0-0-0-0-|
        ...........
                               x2
 |--------------------------------|
 |--------------------------------|
 |-----2-----4-----5-----------4--|
 |-----2-----4-----5-----5-----4--|
 |-0-0-0-0-0-2-0-0-3-0-0-5-0-0-2--|
 |-----------------------3--------|
   ...   ...   ...   ...   ...
 
 SOLO
 |---------------------------------|
 |---------------------------------|
 |---------------------------------|
 |-2--------------4-5----7-8-7-5-4-|
 |-2--------------4-5----7-8-7-5-4-|
 |-0--0-0-0-0-0-0-2-3----5-6-5-3-2-|
      ...........
 
 VERSE 3 - Same
 
 CHORUS 3 - Same
 
 End on
 |------|
 |------|
 |------|
 |-2----|
 |-2----|
 |-0----|
Suggest correction
Give kudos to tab author, rate the tab!
1 2 3 4 5
comments
print report bad tab
guest
You may want to rate the tab now too:
select rating
Wanna post a correction for this tab? Suggest correction