Oops, an error
Loading. Please wait.

Doomsday Bass Tab

version 1
version 1

Whole song

Interactive

1,399 views 1 this week
no commentswrite comment
1 2 3 4 5
3 more votes to show rating
add to favorites
launch autoscroll
font size
0
reset
guitar tuner
Autoscroll
slow
fast
+/-
esc
set tempo
stop
Help us to improve Ultimate-Guitar.com Take our survey!
×
Difficulty
novice
Tuning: E A D G

. = Palm Mute
Heavy Distortion Throughout song

Riff 1
|------------------------------------|
|------------------------------------|
|-------------7----------------------|
|------10--5----6--6-6-6-6-6-6-6-6-6-|
                   . . . . . . . . .

just guesstimate the number of times he does the galloping PM 6's

Riff 2
|------------------------------------|
|------------------------------------|
|-------------6----------------------|
|------10--5----6--6-6-6-6-6-6-6-6-6-|
                   . . . . . . . . .

Start off with riff 1 then do riff 2 and alternate like that for the whole intro

then play this

Riff 3
|------------------------------------|
|------------------------------------|
|--2---4---2-------------------------|
|----3-------3-2---------------------|

listen to the song and get how many times this is repeated and when to switch between riffs

Riff 4
|------------------------------------|
|------------------------------------|
|------------------------------------|
|--0-3-2-3-0-1-0-3-2-3-0-1-----------|
   . . . . . . . . . . . .

Repeat this and play when needed



Suggest correction
Give kudos to tab author, rate the tab!
1 2 3 4 5
comments
print report bad tab
guest
You may want to rate the tab now too:
select rating
Wanna post a correction for this tab? Suggest correction