Oops, an error
Loading. Please wait.

Doomsday Tab

version 1
version 1

Whole song

Interactive

5,375 views 1 this week
3 commentsread comments
1 2 3 4 5
x 4
add to favorites
launch autoscroll
font size
0
reset
how to read this tab
guitar tuner
Autoscroll
slow
fast
+/-
esc
set tempo
stop
Help us to improve Ultimate-Guitar.com Take our survey!
×
Author
Difficulty
Tuning
novice
C G C F A D
-------------------------------------------------------------------------------
                             Doomsday - Six Feet Under
-------------------------------------------------------------------------------
Tabbed By:Greg M.
Tuning: Drop C

 One thing in this song was hard to figure out, the rest was easy. I saw there was no 
for it, and made one.


Riff 1
d|-----------------------------------------------------------------------|
A|-----------------------------------------------------------------------|
F|-----------------------------------------------------------------------|
C|-10-5--7--6--------------------10-5--7--6------------------------------|
G|-10-5--5--6--------------------10-5--5--6------------------------------|
C|-10-5--0--6--6-6-6-6-6-6-6-6---10-5--0--6-8-8-8-8-8-8-8-8--------------|
               . . . . . . . .              . . . . . . . .
Riff 2
d|-----------------------------------------------------------------------|
A|-----------------------------------------------------------------------|
F|-----------------------------------------------------------------------|
C|-3---4-----3-----------------------------------------------------------|
G|-1-3-2-----1--3--2-----------------------------------------------------|
C|---3----------3--2-----------------------------------------------------|
     .

Riff 3
d|-----------------------------------------------------------------------|
A|-----------------------------------------------------------------------|
F|-----------------------------------------------------------------------|
C|-----------------------------------------------------------------------|
G|-0-3-4-3-0-1-0-3-4-3-0-1-0---------------------------------------------|
C|-0-3-4-3-0-1-0-3-4-3-0-1-0---------------------------------------------|
   . . . . . . . . . . . . .


 Simple as that. Put them in order and there have it.


 . = palm mute
Suggest correction
comments
print report bad tab
3 comments total.
0 reply
Serj101 10 Aug 09, 2007 07:45 PM

The tunning is wrong
They never tune in Drop C
These the real tunning
C-F-Bb-Eb-G-C
That's from low to high
Its like standard E
But instead of e its C

0 reply
ShowNoMercy666 10 Mar 01, 2008 06:18 PM

good tab dude
i dont think i could do a better tab, but the second part of riff 1 is a little off.

heres what i think it should be


d|------------------------------------------------------------------|
A|------------------------------------------------------------------|
F|------------------------------------------------------------------|
C|-10-5--7--6--------------------10-5--7--4-------------------------|
G|-10-5--5--6--------------------10-5--5--4-------------------------|
C|-10-5--0--6--6-6-6-6-6-6-6-6---10-5--0--4-8-8-8-8-8-8-8-8---------|
. . . . . . . . . . . . . . . .

0 reply
Brain-Death 10 Nov 07, 2010 10:32 AM

Sorry, but its not only the wrong tuning, there are wrong notes, too. And the 6666 and the 8888 are wrong to, @ first comes the 888 ad then 666.


7-7-8-9-----------------------------7-7-9-8
5-7-6-7-----------------------------5-7-7-6
5-5-6-7-8-8-8-8-8-8-8-8-8-8-8-8-8-8-5-5-7-6-6-6-6-6-6-6-6-6...

guest
You may want to rate the tab now too:
select rating
Wanna post a correction for this tab? Suggest correction