Oops, an error
Loading. Please wait.

Doomsday Tab

version 2
version 2

Whole song

Interactive

842 views 1 this week
no commentswrite comment
1 2 3 4 5
please rate
add to favorites
launch autoscroll
font size
0
reset
how to read this tab
guitar tuner
Autoscroll
slow
fast
+/-
esc
set tempo
stop
Help us to improve Ultimate-Guitar.com Take our survey!
×
Hey everyone this is my first tab and I'm pretty sure this is 100% correct.
If you find anything to correct you can reach me at croatiandude76@aol.com
Have fun all you metal heads!

Opening x8
D ----------------------------------------------------------------------|
A ----------------------------------------------------------------------|
F ----------------------------------------------------------------------|
C ------------------7---6--------------------------7---6----------------|
G ---------10---5---5---6-----------------10---5---5---6----------------|
C ---------10---5---0---6---6666666666----10---5---0---6---8888888888---|
                            **********                     **********
D ----------------------------------------|
A ----------------------------------------|
F ---3-------5-------3--------------------|
C ---3-------5--x3---3--------------------|
G ---1---3---3-------1---3---2------------|
C -------3---------------3---2------------|

D ----------------------------------------------------------------------|
A ----------------------------------------------------------------------|
F ----------------------------------------------------------------------|
C ------------------7---6--------------------------7---6----------------|
G ---------10---5---5---6-----------------10---5---5---6----------------|
C ---------10---5---0---6---6666666666----10---5---0---6---8888888888---| x8
                            **********                     **********

D ----------------------------------------|
A ----------------------------------------|
F ---3-------5-------3--------------------|
C ---3-------5--x3---3--------------------|
G ---1---3---3-------1---3---2------------|
C -------3---------------3---2------------|

D ----------------------------------------------------------------------|
A ----------------------------------------------------------------------|
F ----------------------------------------------------------------------|
C ------------------7---6--------------------------7---6----------------|
G ---------10---5---5---6-----------------10---5---5---6----------------|
C ---------10---5---0---6---6666666666----10---5---0---6---8888888888---| x4
                            **********                     **********

Breakdown x7
D ------------------------------------|
A ------------------------------------|
F ------------------------------------|
C ---0---3---2---3---0---1------------|
G ---0---3---2---3---0---1------------|
C ---0---3---2---3---0---1------------|
     *   *   *   *   *   *
D ----------------------------------------|
A ----------------------------------------|
F ---3-------5-------3--------------------|
C ---3-------5--x3---3--------------------|
G ---1---3---3-------1---3---2------------|
C -------3---------------3---2------------|

Breakdown x7
D ------------------------------------|
A ------------------------------------|
F ------------------------------------|
C ---0---3---2---3---0---1------------|
G ---0---3---2---3---0---1------------|
C ---0---3---2---3---0---1------------|
     *   *   *   *   *   *
D ----------------------------------------|
A ----------------------------------------|
F ---3-------5-------3--------------------|
C ---3-------5--x3---3--------------------|
G ---1---3---3-------1---3---2------------|
C -------3---------------3---2------------|

Breakdown x7
D ------------------------------------|
A ------------------------------------|
F ------------------------------------|
C ---0---3---2---3---0---1------------|
G ---0---3---2---3---0---1------------|
C ---0---3---2---3---0---1------------|
     *   *   *   *   *   *
D ----------------------------------------------------------------------|
A ----------------------------------------------------------------------|
F ----------------------------------------------------------------------|
C ------------------7---6--------------------------7---6----------------|
G ---------10---5---5---6-----------------10---5---5---6----------------|
C ---------10---5---0---6---6666666666----10---5---0---6---8888888888---| x8
                            **********                     **********

Breakdown x7
D ------------------------------------|
A ------------------------------------|
F ------------------------------------|
C ---0---3---2---3---0---1------------|
G ---0---3---2---3---0---1------------|
C ---0---3---2---3---0---1------------|
     *   *   *   *   *   *
Suggest correction
What's this?
You can suggest a correction to this tab. Community and Mods will review your correction and vote to approve or reject it.
comments
We did not receive enough feedback on this tab! Please rate:
print report bad tab
1 2 3 4 5
guest
You may want to rate the tab now too:
select rating
Please do not post tabs as comments. Select "correction" instead!