Oops, an error
Loading. Please wait.

Doomsday Tab

version 3
version 3

Whole song

Interactive

647 views 1 this week
no commentswrite comment
1 2 3 4 5
please rate
add to favorites
launch autoscroll
font size
0
reset
how to read this tab
guitar tuner
Tab Pro tools
  • play this tab
  • loop segment
  • change instrument
  • show fretboard
  • metronome
×
Best way to learn
"Doomsday"
Autoscroll
slow
fast
+/-
esc
set tempo
stop
Contributor
Tuning
C F A# D# G C
I am 99% this is correct.  Tabbed it by ear.
Here it is, KEEP IT METAL!!!!

Six Feet Under DOOMSDAY
Tuning CFA#D#GC
* palm mute

INTRO
----------------------------------------------------------|
----------------------------------------------------------|
----------------------------------------------------------| x4
--7-----8--9----------------7-----9--8--------------------|
--5--7--6--7----------------5--7--7--6--------------------|
-----5---------888888888888----5--------777777777777------|
               ************             ************

RIFF A
----------------------------------------------------------|
----------------------------------------------------------|
----------------------------------------------------------|
--5-------6------5-------5------5-------6------5----------|
--3---5---4------3---5---3------3---5---4------3---5---4--|
------3--------------3--------------3--------------3---2--|

Intro x4
Riff A
Intro x2, then...

Riff B
-----------------------------------|
-----------------------------------|
-----------------------------------| X 2
-----------------------------------|
-----------------------------------|
--77777777555555553333333311111111-|
  ********************************

  then....
Riff C
--------------------|
--------------------|
--------------------|repeat x 8
--------------------|
--2--5--6--5--2--3--|
--0--3--4--3--0--1--|
  *  *  *  *  *  *
Riff A
Riff C x 8
Riff A (Doomsday!! part)
Riff C x 8

Intro x 4

then.....

-----------------------------------|
-----------------------------------|
-----------------------------------| x 1
-----------------------------------|
-----------------------------------|
--77777777555555553333333311111111-|
  ********************************

Riff C x 4
then..
------|
------|
------|
------|
---2--| end
---0--|
comments
We did not receive enough feedback on this tab! Please rate:
print report bad tab
1 2 3 4 5
I want to post or [tab]
guest
You may want to rate the tab now too:
select rating
Please do not post tabs as comments. Select "correction" instead!