Oops, an error
Loading. Please wait.

Feasting On The Blood Of The Insane Bass Tab

version 1
version 1

Whole song

Interactive

2,157 views 1 this week
no commentswrite comment
1 2 3 4 5
2 more votes to show rating
add to favorites
launch autoscroll
font size
0
reset
guitar tuner
Autoscroll
slow
fast
+/-
esc
set tempo
stop
Help us to improve Ultimate-Guitar.com Take our survey!
×
Author
G|--------------------------||
D|--------------------------||
A|-----------------------1*-||
E|-0*------6*-----0*--------||


G|------------------------------------------------------||
D|------------------------------------------------------||
A|----/7---6h7p6h7p6h7p6-----2--3-----2---1h2p1h2p1h2p1-||
E|-0--------------------------1-------------------------||


G|------------------------------------------||
D|------------------------------------------||
A|----/7----6h7p6h7p6h7p6---2--3------------||
E|-0------------------------------0-2-3-7-6-||


G|-----------------------||
D|-----------------------||
A|-----------------------||
E|-0-00000-00003-00004-1-||


G|-------------------------||
D|-------------------------||
A|--------1----------------||
E|-0-0000---00003-00004--1-||


G|-----------------||
D|-----------------||
A|-----------------||
E|-005-006-003-001-||


G|-------------------------------------------------------||
D|-------------------------------------------------------||
A|-------------------------------------------------------||
E|-000003-000001-00000003-000001-000003-000001-00001---3-||


G|---------------------------------------||
D|---------------------------------------||
A|----------55555555------------33333333-||
E|-33333333-----------22222222-----------||
Suggest correction
Give kudos to tab author, rate the tab!
1 2 3 4 5
comments
print report bad tab
guest
You may want to rate the tab now too:
select rating
Wanna post a correction for this tab? Suggest correction