Oops, an error
Loading. Please wait.

Ghosts Of The Undead Bass Tab

version 1
version 1

Whole song

Interactive

1,677 views 1 this week
no commentswrite comment
1 2 3 4 5
please rate
add to favorites
launch autoscroll
font size
0
reset
guitar tuner
Autoscroll
slow
fast
+/-
esc
set tempo
stop
Help us to improve Ultimate-Guitar.com Take our survey!
×
Author
Difficulty
Six Feet Under Ghosts of the Undead
Album: Commandment (2007)
Terry Butler (Bass)

Tuning: C-F-A#-D# (2 Steps Down)

Important Notations:

                   _
|_|= Half Break      |
/  = Eigth Break      - = How often to play the Line
|  = Triplet        _|
~~ = Slide

Break-In

D#| ------------|
A#| ------------|
F | ------5-5-6-|
C | |_| /-------|                                                        x1

D#|----------------------------------------------------------------------|
A#|----------------------------------------------------------------------|
F |-------------------------------------------------------------5-5-6----|
C |3-0-0-2-0-0-0-0--6-0-0-5-0-0-0-0--3-0-0-2-0-0-0-0--6-0-0-5-0----------|   x3

D#|------------------------------------------------------------------|
A#|------------------------------------------------------------------|
F |------------------------------------------------------------------|
C |5---1-1--4--------------------------------------------------------|   3x

D#|------------------------------------------------------------------|
A#|------------------------------------------------------------------|
F |------------------------------------------------------------------|
C |4---5-5--1--------------------------------------------------------|   1x

D#|----------------------------------------------------------------------|
A#|----------------------------------------------------------------------|
F |-------------------------------------------------------------5-5-6----|
C |3-0-0-2-0-0-0-0--6-0-0-5-0-0-0-0--3-0-0-2-0-0-0-0--6-0-0-5-0----------|   x4

D#|------------------------------------------------------------------|
A#|------------------------------------------------------------------|
F |------------------------------------------------------------------|
C |5---1-1--4--------------------------------------------------------|   3x

D#|------------------------------------------------------------------|
A#|------------------------------------------------------------------|
F |------------------------------------------------------------------|
C |4---5-5--1--------------------------------------------------------|   1x


D#|------------------------------------------------------------------|
A#|------------------------------------------------------------------|
F |------------------------------------------------------------------|
C 5-5-5-5-5-5-5-5-4-4-4-4-4-4-4-4-1-1-1-1-1-1-1-1-4-4-4-4-4-4-4-4----|   2x

D#|------------------------------------------------------------------|
A#|------------------------------------------------------------------|
F |------------------------------------------------------------------|
C |7-7-7-7-7-7-7-7-6-6-6-6-6-6-6-6-3-3-3-3-3-3-3-3-6-6-6-6-6-6-6-6---|   2x


D#|------------------------------------------------------------------|
A#|------------------------------------------------------------------|
F |------------------------------------------------------------------|
C 5-5-5-5-5-5-5-5-4-4-4-4-4-4-4-4-1-1-1-1-1-1-1-1-4-4-4-4-4-4-4-4----|   2x

D#|------------------------------------------------------------------|
A#|------------------------------------------------------------------|
F |------------------------------------------------------------------|
C |7-7-7-7-7-7-7-7-6-6-6-6-6-6-6-6-3-3-3-3-3-3-3-3-6-6-6-6-6-6-6-6---|   2x

Break


D#|------------------------------------------------------------------|
A#|------------------------------------------------------------------|
F |5-3-2-------------------------------------------------------------|
C ||-|-|5-3-2--------------------------------------------------------|   1x
     | | |


D#|----------------------------------------------------------------------|
A#|----------------------------------------------------------------------|
F |-------------------------------------------------------------5-5-6----|
C |3-0-0-2-0-0-0-0--6-0-0-5-0-0-0-0--3-0-0-2-0-0-0-0--6-0-0-5-0----------|   x4

D#|------------------------------------------------------------------|
A#|------------------------------------------------------------------|
F |------------------------------------------------------------------|
C |5---1-1--4--------------------------------------------------------|   3x

D#|------------------------------------------------------------------|
A#|------------------------------------------------------------------|
F |------------------------------------------------------------------|
C |4---5-5--1--------------------------------------------------------|   1x


(Little Change)

D#|---------    -------------  ------------------------------------------| _
A#|---------    -------------  ------------------------------------- ----|
F |---------    ------------   ------------------------------------- ----| 3x
C |5---1--4- 3x ---4---5--1- 1x------------------------------------- ----|

Outro Riff


D#|------------ ------------------------------------------------------|
A#|------------ ------------------------------------------------------|
F |------------ ------------------------------------------------------|
C |5---1--4---- ------4---5~~1----------------------------------------|  1x


Thats the Bass Tab for Ghosts of the Undead. Enjoy it, i tried my best. The bass sounds 
Gp4 like "Slap Bass 2" but when the intro comes it changes to "Electric Bass (Pick
Suggest correction
Give kudos to tab author, rate the tab!
1 2 3 4 5
comments
print report bad tab
guest
You may want to rate the tab now too:
select rating
Wanna post a correction for this tab? Suggest correction